Green Day - Viva La Gloria Chords & Tabs

 

Viva La Gloria Chords & Tabs

Green Day Chords & Tabs

Version: 15 Type: Tab 0 ratings
1 star 2 stars 3 stars 4 stars 5 stars
comments

Viva La Gloria Tab

   
Intro - Piano tabbed for Guitar

e|------------------|  
b|-6--8--9--13-11--9|
g|------------------| 
d|------------------| 
a|------------------|
E|------------------|

                   Fm
e|---------------------|
b|---------------------|
g|---------------------|
d|------------------3--|
a|------------------3--| play the F minor 8 times
E|-8--6--4--3--(1)--1--|

Verse 
       Fm          C#maj       Cmaj
e|--------------------------------------------------|
b|--------------------------------------------------|
g|--------------------------------------------------|
d|------3----------11-----------10------------------| Repeat Twice
a|------3(x4)------11(x4)-------10(x2)--------------|
E|-(1)--1-----(9)--9-------(8)--8-------8--6--4--3--|

Chorus
[ Tab from: http://www.guitartabs.cc/tabs/g/green_day/viva_la_gloria_tab_ver_15.html ]
   Fm     C#maj   Cmaj  
e|-----------------------------------------------------------------------|
b|-----------------------------------------------------------------------|
g|-----------------------------------------------------------------------|
d|-3------11------10------------------3------11------10------------------|
a|-3(x8)--11(x8)--10(x4)--------------3(x8)--11(x8)--10(x8)--------------|
E|-1------9-------8-------8--6--4--3--1------9-------8-------8--6--4--3--|

Verse
Chorus

Bridge
 
   C#maj  G#maj                       C#maj  G#maj   Cmaj
e|---------------                  e|-------------------------|
b|---------------                  b|-------------------------|
g|-6-------------                  g|-6--------------5--------|
d|-6-(x8)-6------ Repeat 3 times   d|-6-(x8)-6-------5-(x16)--|
a|-4------6-(x8)-                  a|-4------6-(x8)--3--------|
E|--------4------                  E|--------4----------------|

Solo

e|---------------------------------------------------------------|  
b|-6--8--9--13-11--9---6--8--9--13--8--9---6--8--9--8--6--4--1/8-|
g|---------------------------------------------------------------| x 4
d|---------------------------------------------------------------|
a|---------------------------------------------------------------|
E|---------------------------------------------------------------|

However, on fourth time round end with

e|------12^--13^--|
b|-13^--15^--16^--|
g|-15^------------|
d|----------------|
a|----------------|
E|----------------|

Chorus

Thats everything. Hope this helps you all out. Praise to Green Day for such 
a great song and a great album. 

Peace




Comments