Green Day - Viva La Gloria Little Girl Chords & Tabs

 

Viva La Gloria Little Girl Chords & Tabs

Green Day Chords & Tabs

Version: 5 Type: Bass Tab 0 ratings
1 star 2 stars 3 stars 4 stars 5 stars
comments

Viva La Gloria Little Girl Bass Tab

   
Ich weiss nich obs ganz richtig ist, aber ich finds gut..
Maybe its not right.. ;)

G|---------------------------------------------------------------------|
D|---------------------------------------------------------------------|
A|88888888-44--44--33--3-1--------------88888888-44--44--33--33--33333-|
E|-----------44--44--33---4-3-11111111-------------44--44--33--33------|

G|-----------|
D|-----------|
A|--23--23/8-|
E|11--11-----|

G|------------------------------------|
D|------------------------------------|
A|88---8--44--44--33--3-1------33--33-|
E|------------------33---4-3-11--11---|

G|------------------------------------|
D|------------------------------------|
A|88--88--44--44--33--3-1------33--33-|
E|--88--88--44--44--33---4-3-11--11---|

G|--------------------------------------|
D|--------------------------------------|
A|88--88--44--44--33--3-1------33--33/8-|
E|--88--88--44--44--33---4-3-11--11-----|

G|---------------------------------------|
D|---------------------------------------|
A|88---8--4-4--44--33--3-1------33-------|
E|-------------------33---4-3-11--1/10\7-|
[ Tab from: http://www.guitartabs.cc/tabs/g/green_day/viva_la_gloria_little_girl_btab_ver_5.html ]
G|-------------------------------------|
D|-------------------------------------|
A|88888888-44--44--33--3-1-------------|
E|-----------44--44--33---4-3-11111111-|

G|-------------------------------------------------------|
D|-------------------------------------------------------|
A|88888888-44--44--33--33---33333-1-------33--33--33--33-|
E|-----------44--44--33--33---------4-3-11--11--11--11---|

G|-------------------------------------------------|
D|-------------------------------------------------|
A|44444444--------44444444--------44444444---------|
E|--------44444444--------44444444--------44444444-|

G|-----------------|
D|-----------------|
A|3333333333333333-|
E|-----------------|

G|--------------------------------------|
D|--------------------------------------| (x4)
A|88888888-66666666-5555------6666------|
E|-----------------------6666------8888-|

G|----------------------------------------------------------------|
D|----------------------------------------------------------------|
A|88888888-44--44--33--3-1--------------88888888-44--44--33--33---|
E|-----------44--44--33---4-3-11111111-------------44--44--33--33-|

G|-----------------------------------------|
D|-----------------------------------------|
A|88888888-44--44--33--33---12-12-12-12-12-|
E|-----------44--44--33--33----------------|
Comments