Green Day - Viva La Gloria Little Girl Chords & Tabs

 

Viva La Gloria Little Girl Chords & Tabs

Green Day Chords & Tabs

Version: 4 Type: Bass Tab 0 ratings
1 star 2 stars 3 stars 4 stars 5 stars
comments

Viva La Gloria Little Girl Bass Tab

   
viva la gloria little girl

 
This is how it's played. Awesome song! enjoy!


Intro and Verse 1 are played by a piano

Chorus:

"Runaway..."
   
G|-----------------------------------------------------------------|
D|-----------------------------------------------------------------|
A|-----------------4-------4-------3-------3-1---------------------|
E|-1-1-1-1-1-1-1-1-----4-------4-------3-------4-3-1-1-1-1-1-1-1-1-|

"You're a stray..."

G|-----------------------------------------------------------------|
D|-----------------------------------------------------------------|
A|-----------------4-------4-------3-------3-------3-------3-1-----|
E|-1-1-1-1-1-1-1-1-----4-------4-------3-------3-------3-------4-3-|

Pre-verse:

G|-------------------|
D|-------------------|  (x2)
A|-----2-3------2-3--|
E|-1-------1---------|

Verse 2:

"Little Girl.."

G|-----------------------------------------------------------------|
D|-----------------------------------------------------------------|  
A|-------------------4---4---4-4---3-------3-1---------3-------3---|
E|---1-1-----1-------------------------3-------4-3-1-------1-------|

"Little one..."
[ Tab from: http://www.guitartabs.cc/tabs/g/green_day/viva_la_gloria_little_girl_btab_ver_4.html ]
G|-----------------------------------------------------------------|
D|-----------------------------------------------------------------|
A|-----3-------3---4-------4-------3-------3-1---------3-------3---|
E|-1-------1-----------4-------4-------3-------4-3-1-------1-------|

"In the way..."

G|-----------------------------------------------------------------|
D|-----------------------------------------------------------------|
A|-----2-3-----2-3-4-------4-------3-------3-1---------3-------3---|
E|-1-------1-----------4-------4-------3-------4-3-1-------1-------|

"Little Girl.."

G|-----------------------------------------------------------------|
D|-----------------------------------------------------------------|  
A|-------------------4---4---4-4---3-------3-1---------3-----------|
E|---1-1-----1-------------------------3-------4-3-1-------1-------|


Play Chorus


Bridge:

G|-----------------|
D|-----------------|
A|-----3-------3---| (x2)
E|-1-------1-------|

"The traces..."

G|---------------------------------|
D|---------------------------------|
A|-4-4-4-4-4-4-4-4-----------------| (x3)
E|-----------------4-4-4-4-4-4-4-4-|

"So unholy..."

G|---------|
D|---------|
A|-3-3-3-3-| (x4)
E|---------|

Solo:

G|-----------------------------------------------------------------|
D|-----------------------------------------------------------------| (x4)
A|-8-8-8-8-8-8-8-8-6-6-6-6-6-6-6-6-5-5-5-5---------6-6-6-6---------|
E|-----------------------------------------6-6-6-6---------8-8-8-8-|


Play Chorus



Well.. and that's it, pretty straightforward i think, please rate!!!:)
Comments