Green Day - Viva La Gloria Chords & Tabs

 

Viva La Gloria Chords & Tabs

Green Day Chords & Tabs

Version: 7 Type: Bass Tab 0 ratings
1 star 2 stars 3 stars 4 stars 5 stars
comments

Viva La Gloria Bass Tab

Come in at 0:23 with this:
G|---------|----------------|
D|---------|--3---3---3---3-|
A|-3-1-----|3---3---3---3---|(2nd part x2)
E|-----4-3-|----------------|

(Little girl, little girl why are you crying?...)
G|----------------------------------------------------------------------| 
D|-----3---3---3---3----6---6---6---6----5---5---5---5----3---3---3---3-|
A|---3---3---3---3--------------------------------------3---3---3---3---|(x2)
E|--------------------4---4---4---4----3---3---3---3--------------------|
     1 2 1 2 1 2 1 2  1 2 1 2 1 2 1 2  1 2 1 2 1 2 1 2  1 2 1 2 1 2 1 2

CHORUS
G|-------------------------------------------------------|----------|
D|-------------------------------------------------------|-1st time-|
A|----8-8-8-8-8-8-8-8--4-4-4-4-4-4-4-4--3-3-3-3--3-1-----|---only---| (x2)
E|---------------------------------------------------4-3-|-11111111-|

Pre-verse thing (1:10)
G|-----------------| 
D|---3---3---3---3-|
A|-3---3---3---3---| (x2)
E|-----------------|
[ Tab from: http://www.guitartabs.cc/tabs/g/green_day/viva_la_gloria_btab_ver_7.html ]
(Little girl, little girl your life is calling...) 
G|------------------------|--------------------------------|
D|------------------------|--5---5---5---5---3---3---3---3-|
A|--8-8--8--4----4---4-4--|----------------3---3---3---3---|
E|------------------------|3---3---3---3-------------------|

G|----------------------------------------------------------------------| 
D|-----3---3---3---3----6---6---6---6----5---5---5---5----3---3---3---3-|
A|---3---3---3---3--------------------------------------3---3---3---3---|(x2)
E|--------------------4---4---4---4----3---3---3---3--------------------|
     1 2 1 2 1 2 1 2  1 2 1 2 1 2 1 2  1 2 1 2 1 2 1 2  1 2 1 2 1 2 1 2

(Little girl, little girl, you dirty liar...) 
G|------------------------|--------------------------------|
D|------------------------|--5---5---5---5---3---3---3---3-|
A|--8-8--8--4----4---4-4--|----------------3---3---3---3---|
E|------------------------|3---3---3---3-------------------|


CHORUS


BRIDGE (2:20)
G|------------------------------------------|--However---|
D|------------------------------------------|----Many----|
A|-44444444--------44444444--------44444444-|-3333...----|
E|---------44444444--------44444444---------|------------|

SOLO
G|-----------------------------------------|
D|-----------------------------------------| (X4)
A|---99999999-66666666-5555-6666-3333------|
E|------------------------------------6666-|

CHORUS UNTIL END

Any corrections, please comment.
Comments