Green Day - Viva La Gloria Chords & Tabs

 

Viva La Gloria Chords & Tabs

Green Day Chords & Tabs

Version: 6 Type: Bass Tab 0 ratings
1 star 2 stars 3 stars 4 stars 5 stars
comments

Viva La Gloria Bass Tab

   
-------------------------------------------------------------------------------
			  żViva La Gloria?-Green Day
-------------------------------------------------------------------------------

Tabbed By:Stjimmy34 
Tuning:Standard

Chorus
G|---------------------------------------------------------------------------|
D|-----------------------------------3---3---3---3---------------------------|
A|-----3-44---44--4-33----3-1---------------------------3-44----44--4-3x13---|
E|-1x7-----44----4-----33-----4-3--1---1---1---1----1x7------44----4---------|


Verse
G|-----------------|---------------------------------------------------------|
D|-----------------|--------------------------------------------3---3--3-----|
A|-----2-3/--(x4)--|-88-8--4-4-44--33----3-1----------3------3/---3---3------|
E|-1-1-------------|------------------33-----4-3--1-1----1-1-----------------|

G|--------------------------------------------------------------------------------|
D|--------------------------------------------------------------------------------|
A|-4---4--4-3---3-1--------3---3------2-3------2-3--4---4--4-3---3-1--------3---3-|
E|---4---4----3-----4-3--1---1----1-1------1-1--------4---4----3-----4-3--1---1---|

G|---------------------------------------------------------------------------|
D|---------------------------------------------------------------------------|
A|-/88-8--4-4-44--33----3-1----------3-------3-------------------------------|
E|-------------------33-----4-3--1-1----1-1----------------------------------|

[ Tab from: http://www.guitartabs.cc/tabs/g/green_day/viva_la_gloria_btab_ver_6.html ]
Chorus
G|---------------------------------------------------------------------------|
D|-------------------------------------3---3---3---3-------------------------|
A|-----3-44----44--4-33----3-1------------------------8x7-3-44----44---3x8---|
E|-1x7------44----4-----33------4-3--1---1---1---1-------------44----4-------|

G|---------------------------------------------------------------------------|
D|---------------------------------------------------------------------------|
A|-/15x4--15-13-11-10-8x16---------------------------------------------------|
E|---------------------------------------------------------------------------|


Bridge
G|---------------------------------------|-----------------------------------|
D|---------------------------------------|-----------------------------------|
A|-4-4-4-4-4-4-4-4------------------(x3)-|-3x8--15x8-------------------------|
E|-----------------4-4-4-4-4-4-4-4-------|-----------------------------------|


Guitar solo x4
G|---------------------------------------------------------------------------|
D|---------------------------------------------------------------------------|
A|-8-8-8-8-8-8-8-8-8--6-6-6-6-6-6-6-6-6--5-5-5-5-----------6-6-6-6--3-3-3-3--|
E|------------------------------------------------6-6-6-6--------------------|


Chorus
G|------------------------------------------------------------------------------|
D|-------------------------------------3---3---3---3----------------------------|
A|-----3-44----44--4-33----3-1----------------------------3-44----44---3x8-15x5-|
E|-1x7------44----4-----33------4-3--1---1---1---1----1x7------44----4----------|


| /  slide up
| \  slide down
| h  hammer-on
| p  pull-off
| ~  vibrato
| +  harmonic
| x  Mute note
===============================================================================
Comments