Green Day - Uptight Chords & Tabs

 

Uptight Chords & Tabs

Green Day Chords & Tabs

Version: 1 Type: Tab 2 ratings
1 star 2 stars 3 stars 4 stars 5 stars
comments

Uptight Tab

   
Tabbed By: Sam Champness
Song: Uptight
Tunning: Eadgbe

Intro
e|-------------------------------||--------||NOTE: PLAY A SLIGHT PALM MUTE 
B|-------------------------------||--------||ONLY FOR THE VERSE PART
G|---------------4-4-4-4-4-4-4---||--6-6---||
D|4-4-4-4-4-4-4--4-4-4-4-4-4-4---||--6-6---||
A|4-4-4-4-4-4-4--2-2-2-2-2-2-2---||--4-4---||  
E|-----------------------------X2||--------||


Verse
e|---------------------------|-----------------------------|
B|---------------------------|-----------------------------|
G|-----------4-4-4-4-4-4-4---|----------4-4-4-4------------|
D|4-4-4-4-4--4-4-4-4-4-4-4---|----------4-4-4-4------------|
A|4-4-4-4-4--2-2-2-2-2-2-2---|-4-4-4-4--2-2-2-2------------|
E|-------------------------x3|-4-4-4-4-----------X3---Then-|


e|-----------------------------|------------------------|
B|-----------------------------|------------------------|
G|-----------4-4-4-4-4-----6-6-|----------4-4-4-4-4-4---|
D|4-4-4-4-4--4-4-4-4-4-----6-6-|-4-4-4-4--4-4-4-4-4-4---|
A|4-4-4-4-4--2-2-2-2-2-----4-4-|-4-4-4-4--2-2-2-2-2-2---|
E|----------------------X2-----|----------------------X3|
[ Tab from: http://www.guitartabs.cc/tabs/g/green_day/uptight_tab.html ]
e|-----------------------------|
B|-----------------------------|                                       
G|-----------4-4-4-4-4-4-4-----|                                      
D|-----------4-4-4-4-4-4-4-----|                                      
A|4-4-4-4-4--2-2-2-2-2-2-2-----|                                      
E|4-4-4-4-4-----------------X3-| Then The Chorus                     


Chorus
e|-----------------------------------------------------------|
B|-----------------------------------------------------------|
G|--------4-4-4---------4-4-4---------6-6-6---------4-4--6-6-|
D|-4-4-4--4-4-4--4-4-4--4-4-4--4-4-4--6-6-6--4-4-4--4-4--6-6-|
A|-4-4-4--2-2-2--4-4-4--2-2-2--4-4-4--4-4-4--4-4-4--2-2--4-4-|
E|-2-2-2---------2-2-2---------2-2-2---------2-2-2-----------|

Solo
e|2-2-2-1-1-1-2-2-2-1-1-1-2-2-1-1--|
B|2-2-2-2-2-2-2-2-2-2-2-2-2-2-2-2--|
G|---------------------------------|
D|---------------------------------|
A|---------------------------------|
E|---------------------------------|X8

| /  slide up
| \  slide down
| h  hammer-on
| p  pull-off
| ~  vibrato
| +  harmonic
| x  Mute note
===============================================================================
Comments