Green Day - Troubled Chords & Tabs

 

Troubled Chords & Tabs

Green Day Chords & Tabs

Version: 1 Type: Tab 0 ratings
1 star 2 stars 3 stars 4 stars 5 stars
comments

Troubled Tab

                          Intro
     
E|-----------------------------------------------------------------------------|
B|-----------------------------------------------------------------------------|
G|----9------9-----9-----------------------------------------------------------|
D|---9-0----9-0---9-0----------------------------------------------------------|
A|--7------7-----7-------------------------------------------------------------|
E|--------8-----7-----6--------------------------------------------------------|
x1
                  Play This After the Intro Only
E|-----------------------------------------------------------------------------|
B|-----------------------------------------------------------------------------|
G|------------------------------------------9----5-----------------------------|
D|------------------------------------------9----5----5----7-------------------|
A|--777--333------------777--333------------777--333--5----7-------------------|
E|------------333--555------------333--555------------333--555-----------------|

E|-----------------------------------------------------------------------------|
B|-----------------------------------------------------------------------------|
G|--9----5---------------------------------------------------------------------|
D|--9----5----5----7-----------------------------------------------------------|
A|--777--333--5----7-----------------------------------------------------------|
E|------------333--555---------------------------------------------------------|

                  
E|-----------------------------------------------------------------------------|
B|-----------------------------------------------------------------------------|
G|--999--555-------------------------------------------------------------------|
D|--999  555--555--777---------------------------------------------------------|
A|--777--333--555--777---------------------------------------------------------|
E|------------333--555---------------------------------------------------------|
x2
[ Tab from: http://www.guitartabs.cc/tabs/g/green_day/troubled_tab.html ]
                                  (Palm Muted)
                                     Verse
E|-----------------------------------------------------------------------------|
B|-----------------------------------------------------------------------------|
G|--999--555-------------------------------------------------------------------|
D|--999  555--555--777---------------------------------------------------------|
A|--777--333--555--777---------------------------------------------------------|
E|------------333--555---------------------------------------------------------|
x4
                                    Chorus
E|-----------------------------------------------------------------------------|
B|-----------------------------------------------------------------------------|
G|--999999999999--777777777777-------------------------------------------------|
D|--999999999999--777777777777-------------------------------------------------|
A|--777777777777--555555555555-------------------------------------------------|
E|--777777777777--555555555555-------------------------------------------------|
x2

                                     Solo
E|-----12-------10-8-8-10-8-----12----------14-12-12-14-----12------10-12-10-12|
B|--10----10-12--------------10----12-10-12--------------10----10-12-----------|
G|-----------------------------------------------------------------------------|
D|-----------------------------------------------------------------------------|
A|-----------------------------------------------------------------------------|
E|-----------------------------------------------------------------------------|

E|-----12-------10-8-8-10-8----------------------------------------------------|
B|--10----10-12--------------10------------------------------------------------|
G|-----------------------------------------------------------------------------|
D|-----------------------------------------------------------------------------|
A|-----------------------------------------------------------------------------|
E|-----------------------------------------------------------------------------|
X1

This is the easiest song to play. Buy their CD and listen to this cool ass song.
Comments