Green Day - Too Much Too Soon Chords & Tabs

 

Too Much Too Soon Chords & Tabs

Green Day Chords & Tabs

Version: 8 Type: Tab 0 ratings
1 star 2 stars 3 stars 4 stars 5 stars
comments

Too Much Too Soon Tab

   
-------------------------------------------------------------------------------
                             Too much Too soon - Green Day
-------------------------------------------------------------------------------
Tabbed by:John (Jay3213)
Email:Jay_3213@hotmail.com

Tuning:Standard

Enjoy this Awesome Green day Tab. Note that this is for the first guitar not the second 
the song. If you notice any mistakes let me know (This is my first tab)
So Enjoy!!
(UPDATE - Solo fixed)

Legend:

* = Palm mute
-------------------------------------------------------------------------------
[Intro]
 e|------------------------------------------------------------------------------|
B|-------------------------------------------------------------------------------|
G|-----------------8-6-6-6-9-x-x-9-x-9-9-9-911-----------------------------------|
 D|---9-x-9-9-x-9-9-8-6-6-6-9-x-x-9-x-9-9-9-911----x2----------------------------|
 A|---9-x-9-9-x-9-9-6-4-4-4-7-x-x-7-x-7-7-7-7-9----------------------------------|
 E|---7-x-7-7-x-7-7--------------------------------------------------------------|

 [2n intro] Shes always living like shes running out of time.....
 e|----------------------------------------------------------------------------|
 B|----------------------------------------------------------------------------|
 G|----------------------------------------------------------------------------|
 D|---9-9-9-9-9-9-9-9-9-9-2-2-2-2-2-2-4-4-4-4-4-4------------------------------|
 A|---9-9-9-9-9-9-9-9-9-9-2-2-2-2-2-2-4-4-4-4-4-4----x4------------------------|
 E|---7-7-7-7-7-7-7-7-7-7-0-0-0-0-0-0-2-2-2-2-2-2------------------------------|
      * * * * * * * * * * * * * * * * * * * * * *
 [Verse]   The looks are always.........
 e|----------------------------------------------------------------------------|
 B|----------------------------------------------------------------------------|
 G|----------------------------------------------------------------------------|
 D|---2-2-2-2-2-2-2-2-2-2-4-4-4-4---7-5-4---2-2-2-2-2-2---4-4-4-4-4-4-4-4------|
 A|---2-2-2-2-2-2-2-2-2-2-4-4-4-4---7-5-4---2-2-2-2-2-2---4-4-4-4-4-4-4-4------|
 E|---0-0-0-0-0-0-0-0-0-0-2-2-2-2---5-3-2---0-0-0-0-0-0---2-2-2-2-2-2-2-2------|

 [Chorus}  Do ya... To much too soon.....
 e|----------------------------------------------------------------------------|
 B|----------------------------------------------------------------------------|
 G|-----------------8-6-6-6-9-x-x-9-x-9-9-9-911--------------------------------|
 D|---9-x-9-9-x-9-9-8-6-6-6-9-x-x-9-x-9-9-9-911----x2--------------------------|
 A|---9-x-9-9-x-9-9-6-4-4-4-7-x-x-7-x-7-7-7-7-9--------------------------------|
 E|---7-x-7-7-x-7-7------------------------------------------------------------|

 [Break]  (Just guitar)
 e|----------------------------------------------------------------------------|
 B|----------------------------------------------------------------------------|
 G|----------------------------------------------------------------------------|
 D|---9-x-9-9-x-9-4-4-4-2-2-2--------------------------------------------------|
 A|---9-x-9-9-x-9-4-4-4-2-2-2--------x2----------------------------------------|
 E|---7-x-7-7-x-7-2-2-2-0-0-0--------------------------------------------------|

 [Verse] Hes talking shit about......
 e|----------------------------------------------------------------------------|
 B|----------------------------------------------------------------------------|
 G|----------------------------------------------------------------------------|
 D|---9-9-9-9-9-9-9-9-9-9-2-2-2-2-2-2-4-4-4-4-4-4------------------------------|
 A|---9-9-9-9-9-9-9-9-9-9-2-2-2-2-2-2-4-4-4-4-4-4----x4------------------------|
 E|---7-7-7-7-7-7-7-7-7-7-0-0-0-0-0-0-2-2-2-2-2-2------------------------------|
[ Tab from: http://www.guitartabs.cc/tabs/g/green_day/too_much_too_soon_tab_ver_8.html ]
 [Verse]   The looks are always.........
 e|----------------------------------------------------------------------------|
 B|----------------------------------------------------------------------------|
 G|----------------------------------------------------------------------------|
 D|---2-2-2-2-2-2-2-2-2-2-4-4-4-4---7-5-4---2-2-2-2-2-2---4-4-4-4-4-4-4-4------|
 A|---2-2-2-2-2-2-2-2-2-2-4-4-4-4---7-5-4---2-2-2-2-2-2---4-4-4-4-4-4-4-4------|
 E|---0-0-0-0-0-0-0-0-0-0-2-2-2-2---5-3-2---0-0-0-0-0-0---2-2-2-2-2-2-2-2------|

 [Chorus}  Do ya... To much too soon.....
 e|----------------------------------------------------------------------------|
 B|----------------------------------------------------------------------------|
 G|-----------------8-6-6-6-9-x-x-9-x-9-9-9-911--------------------------------|
 D|---9-x-9-9-x-9-9-8-6-6-6-9-x-x-9-x-9-9-9-911----x2--------------------------|
 A|---9-x-9-9-x-9-9-6-4-4-4-7-x-x-7-x-7-7-7-7-9--------------------------------|
 E|---7-x-7-7-x-7-7------------------------------------------------------------|

 [Break]  (Just guitar)
 e|----------------------------------------------------------------------------|
 B|----------------------------------------------------------------------------|
 G|----------------------------------------------------------------------------|
 D|---9-x-9-9-x-9-4-4-4-2-2-2--------------------------------------------------|
 A|---9-x-9-9-x-9-4-4-4-2-2-2--------x2----------------------------------------|
 E|---7-x-7-7-x-7-2-2-2-0-0-0--------------------------------------------------|


 [Solo]
 e|--4~-4~--0--------4~-4~--0-------4-----4---4--------------------------------|
 B|----------4~-4~-7---------4-4-4---4-4---4----------------------------------|
 G|----------------------------------------------------------------------------|
 D|----------------------------------------------------------------------------|
 A|----------------------------------------------------------------------------|
 E|----------------------------------------------------------------------------|

 [Chorus]   Oh, Oh oh oh... Oh, oh oh oh
 e|----------------------------------------------------------------------------|
 B|----------------------------------------------------------------------------|
 G|-----------------8-6-6-6-9-x-x-9-x-9-9-9-911--------------------------------|
 D|---9-x-9-9-x-9-9-8-6-6-6-9-x-x-9-x-9-9-9-911----x4--------------------------|
 A|---9-x-9-9-x-9-9-6-4-4-4-7-x-x-7-x-7-7-7-7-9--------------------------------|
 E|---7-x-7-7-x-7-7------------------------------------------------------------|


 [STOP]  Too much too soon

 [Chorus]  Now it sucks to be ya...
 e|----------------------------------------------------------------------------|
 B|----------------------------------------------------------------------------|
 G|-----------------8-6-6-6-9-x-x-9-x-9-9-9-911--------------------------------|
 D|---9-x-9-9-x-9-9-8-6-6-6-9-x-x-9-x-9-9-9-911----x4--------------------------|
 A|---9-x-9-9-x-9-9-6-4-4-4-7-x-x-7-x-7-7-7-7-9--------------------------------|
 E|---7-x-7-7-x-7-7------------------------------------------------------------|


 [Break]  (Just guitar)
 e|----------------------------------------------------------------------------|
 B|----------------------------------------------------------------------------|
 G|----------------------------------------------------------------------------|
 D|---9-x-9-9-x-9-4-4-4-2-2-2------------9~------------9-----------------------|
 A|---9-x-9-9-x-9-4-4-4-2-2-2--------x2--9~------------9-----------------------|
 E|---7-x-7-7-x-7-2-2-2-0-0-0------------7~------------7-----------------------|

| /  slide up
| \  slide down
| h  hammer-on
| p  pull-off
| ~  vibrato
| +  harmonic
| x  Mute note
===============================================================================
Comments