Green Day - Too Much Too Soon Chords & Tabs

 

Too Much Too Soon Chords & Tabs

Green Day Chords & Tabs

Version: 1 Type: Tab 0 ratings
1 star 2 stars 3 stars 4 stars 5 stars
comments

Too Much Too Soon Tab

Green Day-Too Much Too Soon 
This is a bonus track on the American Idiot single CD

This is the best tab you'll find, because its the only one on the internet.  
Its almost perfect, but if you find any errors, feel free to fix them and post it yourself.

*=Palm Mute
h=hammer on
P=pull off

The playing order is at the bottom.

Main Riff
|---------------------------------|
|---------------------------------|
|-4-44-44-4-66-88--6-66-6-6-6-----|
|-4-44-44-4-66-88--6-66-6-6-6-6-4-|
|-2-22-22-2-44-66--4-44-4-4-4-6-4-|
|-----------------------------4-2-|
Verse 
|------------------------------------|x4
|------------------------------------|
|------------------44444444-66666666-|
|-4444444444444444-44444444-66666666-|
|-4444444444444444-22222222-44444444-|
|-2222222222222222-------------------|
   ***************  *******  *******
[ Tab from: http://www.guitartabs.cc/tabs/g/green_day/too_much_too_soon_tab.html ]
Prechorus
|-------------------------------------------------------------------|
|-------------------------------------------------------------------|
|-4-4-4-4-4-4-4-4-6-6-6-6-6-6-4-4-----4-4-4-4-4-4-4-4-6-6-6-6-6--4-6|
|-4-4-4-4-4-4-4-4-6-6-6-6-6-6-4-4-4-2-4-4-4-4-4-4-4-4-6-6-6-6-6--4-6|
|-2-2-2-2-2-2-2-2-6-6-6-6-6-6-2-4-4-0-2-2-2-2-2-2-2-2-4-4-4-4-4--2-4|
|---------------------------------2-0-------------------------------|     

Bridge
|---------------|
|---------------|
|-444-444-------|
|-444-444-444-2-|
|-222-222-444-2-|
|---------222-0-|

Interlude: 
|---------------------------------------|
|---------------------------------------|
|-7h9-9p7-7p5-5h7-7h9-9p7-7p5-6-6-6-6-6-|
|-----------------------------4-4-4-4-4-|
|-----------------------------4-4-4-4-4-|
|---------------------------------------|

Riff 2
|----------------------|
|----------------------|
|-4-2-4-6-66-6-6-6-----|
|-4-2-4-6-66-4-4-4-6-4-|
|-2-0-2-4-44-4-4-4-6-4-|
|------------------4-2-|

Outro
|-------|
|-------|
|-4---4-|
|-4---4-|
|-2---2-|
|-------|


Order:
Main Riff x2
Verese x4
prechorus
main riff x4
bridge x2
verse x4
prechorus
main riff x4
bridge x2
interlude
main riff x4
Riff 2
Main Riff x3
Bridge x4
Outro
Comments