Green Day - Too Much To Soon Chords & Tabs

 

Too Much To Soon Chords & Tabs

Green Day Chords & Tabs

Version: 1 Type: Tab 0 ratings
1 star 2 stars 3 stars 4 stars 5 stars
comments

Too Much To Soon Tab

This is a really kick ass song by green day best new song by them other than american idiot and favorite son

There are two guitars in this this song
key:
x = muted string
/ = slide up to
* = Palm Muted
~ = Vibrato


Intro/Chorus
guitar 1
|----------------------------------|
|----------------------------------|
|4-44-4444-88-6/99-99-9999-9-11----|
|4-44-4444-xx-x-xx-xx-xxxx-9-11----|
|2-22-2222-66-4/77-77-7777-7-9-----|
|----------------------------------|

guitar 2
|----------------------------------|
|----------------------------------|
|4-44-4444-------------------------|
|4-44-4444-44-4-22-22-2222--2-4----|
|2-22-2222-44-4-22-22-2222--2-4----|
|----------22-2-00-00-0000--0-2----|

Verse
both guitars
|----------------------------------|
|----------------------------------|
|4444444444444444------------------|
|4444444444444444-22222222-44444444|
|2222222222222222-22222222-44444444|
|-----------------00000000-22222222|
  ***************  *******  *******
[ Tab from: http://www.guitartabs.cc/tabs/g/green_day/too_much_to_soon_tab.html ]
Pre-Chorus
guitar 1
|----------------------------------||----------------------------------|
|----------------------------------||----------------------------------|
|----------------------------------||----------------------------------|
|2222222222222222-44444444444444/66||2222222222222222-4444444444-2-4---|
|2222222222222222-44444444444444/66||2222222222222222-4444444444-2-4---|
|0000000000000000-22222222222222/44||0000000000000000-2222222222-0-2---|
guitar 2 just plays -9 instead of 2 for the first bar
                    -9            2
                    -7            0
                    -


Post-Chorus
|----------------------------------|
|----------------------------------|
|4-4444----------------------------|
|4-4444-44-2-22--------------------|
|2-2222-44-2-22--------------------|
|-------22-0-00--------------------|

Interlude
|----------------------------------|
|----------------------------------|
|13~13-9~9-8~8-11~-----------------|
|----------------------------------|
|----------------------------------|
|----------------------------------|

Order:
Intro 2x
Verse 4x
Pre-Chorus 1x
Chorus 4x
POst-CHorus 2x
Verse 4x
Pre-Chorus 1x
Chorus 4x
Post-Chorus 2x
Interlude 2x
Chorus 8x
Post-Chorus 4x
Comments