Green Day - Tired Of Waiting For You Chords & Tabs

 

Tired Of Waiting For You Chords & Tabs

Green Day Chords & Tabs

Version: 1 Type: Tab 0 ratings
1 star 2 stars 3 stars 4 stars 5 stars
comments

Tired Of Waiting For You Tab

Tablatura de NICO M. (nicokbbl@hotmail.com)


Artista: Green Day
Cancion: Tired Of Waiting For You
Album: Shenanigans (2002)


Intro (primera guitarra) (first guitar)

1|---------------------------------------------------------|
2|---------3--------1--------------------------------------|
3|-------4--------2----------------------------------------|x14
4|--3/5------5/3-------------------------------------------|
5|---------------------------------------------------------|
6|---------------------------------------------------------|

(A la quinta ves de haber repetido esto empiesa a cantar)
(To fifth time of repiting play to chant)


   So tired
   Tired of waiting... 
   Tired of waiting for you    
   So tired
   Tired of waiting... 
   Tired of waiting for you 


Intro (segunda guitarra acompaņa a primera guitarra) (second guitar)

1|---------------------------------------------------------|
2|---------------------------------------------------------|
3|---------------------------------------------------------|x2
4|--5/3--3/5--5/3--3/5--5/3--3/5--5/3--3/5--5/3--3/5-------|
5|--5/3--3/5--5/3--3/5--5/3--3/5--5/3--3/5--5/3--3/5-------|
6|--3/1--1/3--3/1--1/3--3/1--1/3--3/1--1/3--3/1--1/3-------|


1|---------------------------------------------------------|
2|---------------------------------------------------------|
3|------5-5------------------------------------------------|x7
4|--5-5-5-5------------------------------------------------|
5|--5-5-3-3------------------------------------------------|
6|--3-3----------------------------------------------------|


  I was a lonely soul
  I had nobody till I met you
  But you keep me waiting all of the time
  What can I do???

1|--0--0--0---------------------------------------------------|
2|--0--1--0---------------------------------------------------|
3|--1--2--0---------------------------------------------------|x2
4|--2--3--1---------------------------------------------------|
5|--3--0--2---------------------------------------------------|
6|--0--0--3---------------------------------------------------|

  It's your life
  And you can do what you want 

  Do what you like ...

1|---------------------------------------------------------|
2|---------------------------------------------------------|
3|--------------5-5-5-5-5-5--------------------------------|x2
4|--5-5-5-5-5-5-5-5-5-5-5-5--------------------------------|
5|--5-5-5-5-5-5-3-3-3-3-3-3--------------------------------|
6|--3-3-3-3-3-3--------------------------------------------|


  ...But please don't keep me waiting
  But please don't keep me waiting


1|---------------------------------------------------------|
2|---------3--------1--------------------------------------|
3|-------4--------2----------------------------------------|x11
4|--3/5------5/3-------------------------------------------|
5|---------------------------------------------------------|
6|---------------------------------------------------------|
[ Tab from: http://www.guitartabs.cc/tabs/g/green_day/tired_of_waiting_for_you_tab.html ]
(A la quinta ves de haber repetido esto empiesa a cantar)
(To fifth time of repiting play to chant)


   So tired
   Tired of waiting... 
   Tired of waiting for you    
   So tired
   Tired of waiting... 
   Tired of waiting for you 


Intro (segunda guitarra acompaņa a primera guitarra) (second guitar)

1|---------------------------------------------------------|
2|---------------------------------------------------------|
3|---------------------------------------------------------|
4|--5/3--3/5--5/3--3/5--5/3--3/5--5/3--3/5--5/3--3/5--5/3--|
5|--5/3--3/5--5/3--3/5--5/3--3/5--5/3--3/5--5/3--3/5--5/3--|
6|--3/1--1/3--3/1--1/3--3/1--1/3--3/1--1/3--3/1--1/3--3/1--|



1|---------------------------------------------------------|
2|---------------------------------------------------------|
3|------5-5------------------------------------------------|x7
4|--5-5-5-5------------------------------------------------|
5|--5-5-3-3------------------------------------------------|
6|--3-3----------------------------------------------------|


  I was a lonely soul
  I had nobody till I met you
  But you keep me waiting all of the time
  What can I do???


1|--0--0--0---------------------------------------------------|
2|--0--1--0---------------------------------------------------|
3|--1--2--0---------------------------------------------------|x2
4|--2--3--1---------------------------------------------------|
5|--3--0--2---------------------------------------------------|
6|--0--0--3---------------------------------------------------|

  It's your life
  And you can do what you want 

  Do what you like ...

1|---------------------------------------------------------|
2|---------------------------------------------------------|
3|--------------5-5-5-5-5-5--------------------------------|x2
4|--5-5-5-5-5-5-5-5-5-5-5-5--------------------------------|
5|--5-5-5-5-5-5-3-3-3-3-3-3--------------------------------|
6|--3-3-3-3-3-3--------------------------------------------|


  ...But please don't keep me waiting
  But please don't keep me waiting


1|---------------------------------------------------------|
2|---------3--------1--------------------------------------|
3|-------4--------2----------------------------------------|x14
4|--3/5------5/3-------------------------------------------|
5|---------------------------------------------------------|
6|---------------------------------------------------------|

(A la quinta ves de haber repetido esto empiesa a cantar)
(To fifth time of repiting play to chant)


   So tired
   Tired of waiting... 
   Tired of waiting for you    
   
   So tired
   Tired of waiting... 
   Tired of waiting for you 


Intro (segunda guitarra acompaņa a primera guitarra) (second guitar)

1|---------------------------------------------------------|
2|---------------------------------------------------------|
3|---------------------------------------------------------|x2
4|--5/3--3/5--5/3--3/5--5/3--3/5--5/3--3/5--5/3--3/5-------|
5|--5/3--3/5--5/3--3/5--5/3--3/5--5/3--3/5--5/3--3/5-------|
6|--3/1--1/3--3/1--1/3--3/1--1/3--3/1--1/3--3/1--1/3-------|


   For You... x2
Comments