Green Day - Tight Wad Hill Chords & Tabs

 

Green Day Chords & Tabs

Version: 1 Type: Tab 1 rating
1 star 2 stars 3 stars 4 stars 5 stars
comments

Tight Wad Hill Tab

   
Tabbed by: Sam Champness
Email:
Song: Tight Wad Hill
Tuning: Half Step Down

Verse
e|-------------------------------------------------------------|
B|-------------------------------------------------------------|
G|-------------------------------------------------------------|
D|-7-7-7-7-7-7-7-7-7-7-7-7--5-5-5-5-5-5-5--7-7-7-7-7-7---5-x-5-|
A|-7-7-7-7-7-7-7-7-7-7-7-7--5-5-5-5-5-5-5--7-7-7-7-7-7---5-x-5-|
E|-5-5-5-5-5-5-5-5-5-5-5-5--3-3-3-3-3-3-3--5-5-5-5-5-5---3-x-3-|x2
[ Tab from: http://www.guitartabs.cc/tabs/g/green_day/tight_wad_hill_tab.html ]
Chorus
e|-----------------------------------------|-------------------------|--->
B|-----------------------------------------|-------------------------|--->
G|-5-5-5-5---------------------------------|-5-5-5-5-5-5-------------|--->
D|-5-5-5-5--5-5-5-5--7-x-7--5--7-7-7-7-7-7-|-5-5-5-5-5-5-5-5-5-5-5-5-|--->
A|-3-3-3-3--5-5-5-5--7-x-7--5--7-7-7-7-7-7-|-3-3-3-3-3-3-5-5-5-5-5-5-|--->
E|----------3-3-3-3--5-x-5--3--5-5-5-5-5-5-|-------------3-3-3-3-3-3-|x2->

e|-------------------------------|
B|-------------------------------|
G|-5-----------------------------|
D|-5-------5-------7-7-7-7-7-7-7-|
A|-3-Pause-5-------7-7-7-7-7-7-7-|
E|---------3-Pause-5-5-5-5-5-5-5-|

Bridge
e|----------------------------------------------------------------------|
B|----------------------------------------------------------------------|
G|----------------------------------------------------------------------|
D|-7-7-7-7-7-7-7-7-7-7-7-7-7-7-7-7-7--3-3-3-3-3-3-3-3-3--7-7-7-7--5-x-5-|
A|-7-7-7-7-7-7-7-7-7-7-7-7-7-7-7-7-7--5-5-5-5-5-5-5-5-5--7-7-7-7--5-x-5-|
E|-5-5-5-5-5-5-5-5-5-5-5-5-5-5-5-5-5--3-3-3-3-3-3-3-3-3--5-5-5-5--3-x-3-|

ORDER
VERSE
CHORUS
VERSE
CHORUS
BRIDGE
CHORUS
FINNISHED

| /  slide up
| \  slide down
| h  hammer-on
| p  pull-off
| ~  vibrato
| +  harmonic
| x  Mute note
===============================================================================
Comments