Green Day - Tight Wad Hill Chords & Tabs

 

Tight Wad Hill Chords & Tabs

Green Day Chords & Tabs

Version: 1 Type: Bass Tab 0 ratings
1 star 2 stars 3 stars 4 stars 5 stars
comments

Tight Wad Hill Bass Tab

Song: Tight Wad Hill
Artist: Green Day
Album: Insomniac

Verse
G----------------------------------------------------------------
D------------------4-4-------------------------------------------
A----------------------------------------------------------------
E--4-4-4-4-4-4-4-4------2-2-2-2-2-2--2h3h4--4-4-4-4-4-4-4-4-2h4--

Chorus				    X2			  X2
G---------------------------------------|---------------------|-------------------------------
D--------4--------6---------------------|--------4------------|-------------------------------
A--2-2-2--------------------------------|--2-2-2--------------|--2----------------------------
E-----------2-2-2----4-4-4-4-2h4-4-4-4--|----------2-2-2-2-2--|------2---4-4-4-4-4-4-4-4-2h4--
[ Tab from: http://www.guitartabs.cc/tabs/g/green_day/tight_wad_hill_btab.html ]
Bridge
G-------------------------------------------------------------------------
D------------------6-6-5-5-4-4--------------------------------------------
A-------------------------------------------------------------------------
E--4-4-4-4-4-4-4-4-------------2-2-2-2-2-2--2h3h4--4-4-4-4-4-4-4-4-4-2h4--

G-------------------------------------------------------------------------------
D------6-6-----6-6-----6-6-----6-6-----4-4--------------------------------------
A-------------------------------------------------------------------------------
E--4-4-----4-4-----4-4-----4-4-----2-2-----2-2-2--2h3h4--4-4-4-4-4-4-4-4-4-2h4--

Outro				    X2			    X2
G---------------------------------------|---------------------|-------------------------------
D--------4--------6---------------------|--------4------------|-------------------------------
A--2-2-2--------------------------------|--2-2-2--------------|--2----------------------------
E-----------2-2-2----4-4-4-4-2h4-4-4-4--|----------2-2-2-2-2--|------2---4-4-4-4-4-4-4-2-2-4--


Verse X2
Chorus X1
Verse X2
Chorus X1
Bridge X1
Outro X1

This tab was created by Christian Mangs. EMail me at:
Shadow145@hotmail.com

Comments