Green Day - The Static Age Chords & Tabs

 

The Static Age Chords & Tabs

Green Day Chords & Tabs

Version: 5 Type: Tab 0 ratings
1 star 2 stars 3 stars 4 stars 5 stars
comments

The Static Age Tab

e|---------------------------------------------------------------------------|
B|---------------------------------------------------------------------------|
G|--5--5--5--5--5--5--5--5--5--5--5--9--7--5--10---10--10--10--10--10--10----|
D|---------------------------------------------------------------------------|
A|--3--3--3--3--3--3--3--3--3--3--3--7--5--3--8----8---8---8---8---8---8-----|
E|---------------------------------------------------------------------------|

e|---------------------------------------------------------------------------|
B|---------------------------------------------------------------------------|
G|7--7--7--7--7--7--10-10-9--9--9--9--9--9--9--9--9--7--5--10---10--10--10--9|
D|---------------------------------------------------------------------------|
A|5--5--5--5--5--5--8--8--7--7--7--7--7--7--7--7--7--5--3--8----8---8---8---7|
E|---------------------------------------------------------------------------|

e|---------------------------------------------------------------------------|
B|---------------------------------------------------------------------------|
G|-10--12--12--12--12--12--12--12--12--5---5--5--5--5--5--5--5--5--5--9--7--5|
D|---------------------------------------------------------------------------|
A|-8---10--10--10--10--10--10--10--10--3---3--3--3--3--3--3--3--3--3--7--5--3|
E|---------------------------------------------------------------------------|
[ Tab from: http://www.guitartabs.cc/tabs/g/green_day/the_static_age_tab_ver_5.html ]
e|---------------------------------------------------------------------------|
B|---------------------------------------------------------------------------|
G|--10---10--10--10--10--10--10--7---7--7--7--7--10--10--9--9--9--9--9--9--9-|
D|---------------------------------------------------------------------------|
A|--8----8---8---8---8---8---8---5---5--5--5--5--8---8---7--7--7--7--7--7--7-|
E|---------------------------------------------------------------------------|

e|---------------------------------------------------------------------------|
B|---------------------------------------------------------------------------|
G|--9--9--9--9--9--7--5--10---10--10--10--9--10--12--12--12--12--12--12--12--|
D|---------------------------------------------------------------------------|
A|--7--7--7--7--7--5--3--8----8---8---8---7--8---10--10--10--10--10--10--10--|
E|---------------------------------------------------------------------------|

e|---------------------------------------------------------------------------|
B|---------------------------------------------------------------------------|
G|--12--13---13--13--13--13--13--13--14-14-14-14-14-14-15-15-15-15-15-15-----|
D|---------------------------------------------------------------------------|
A|--10--11---11--11--11--11--11--11--12-12-12-12-12-12-13-13-13-13-13-13-----|
E|---------------------------------------------------------------------------|

e|---------------------------------------------------------------------------|
B|---------------------------------------------------------------------------|
G|--17-17-17-18-18-18-19-19-19-20-20-20-21-----------------------------------|
D|---------------------------------------------------------------------------|
A|--15-15-15-16-16-16-17-17-17-18-18-18-19-----------------------------------|
E|---------------------------------------------------------------------------|
Comments