Green Day - The Grouch Chords & Tabs

 

The Grouch Chords & Tabs

Green Day Chords & Tabs

Version: 5 Type: Tab 0 ratings
1 star 2 stars 3 stars 4 stars 5 stars
comments

The Grouch Tab

   
Tabbed by:Sam Champness
Email:
song:The Grouch
Tuning: EADGBe

e|------------------|-----------------|-----------------|----------------|
B|------------------|-----------------|-----------------|----------------|
G|---------------77-|---------77------|-------------77--|----------------|
D|---77--22--77--77-|-77--22--77--22--|-77--22--77--77-x|-77--22--77777--|
A|-x-77--22--77--55-|-77--22--55--22-x|-77--22--77--55-x|-77--22--77777--|
E|-x-55--00--55-----|-55--00------00-x|-55--00--55------|-55--00--55555--|X2

Chorus
e|------------------|------------------------|
B|------------------|------------------------|
G|-------77---------|-------77------9999999--|
D|---44--77--77--22-|---44--77--77--9999999--|
A|-x-44--55--77--22-|-x-44--55--77--7777777--|
E|-x-22------55--00-|-x-22------55-----------|
[ Tab from: http://www.guitartabs.cc/tabs/g/green_day/the_grouch_tab_ver_5.html ]
Solo
e|---------------------------------------------------------|-->
B|---------------------------------------------------------|-->
G|-9-99-11-11-99-99-99-77-99-\-4-66-4-6-77-6--11-9-6-4-2---|-->
D|---------------------------------------------------------|-->
A|---------------------------------------------------------|-->
E|---------------------------------------------------------|-->

-->|e|---------------------------------------------------------------------|
-->|B|------------------------------------------------------55-77-8\\\-----|
-->|G|-6-77-66-44--6666-7777-666-/-9--6-77-66-44--6666-7777----------------|
-->|D|---------------------------------------------------------------------|
-->|A|---------------------------------------------------------------------|
-->|E|---------------------------------------------------------------------|

Ending
e|-----------------|------------------------|--------|
B|-----------------|------------------------|--------|
G|-----------------|-----------77777777-----|--------|
D|---77--22--7777--|---77--22--77777777--7--|-----7~-|
A|-x-77--22--7777--|-x-77--22--55555555--7--|-----7~-|
E|-x-55--00--5555--|-x-55--00------------5--|-----5~-|ENJOY!!! PLAESE RATE!!!

| /  slide up
| \  slide down
| h  hammer-on
| p  pull-off
| ~  vibrato
| +  harmonic
| x  Mute note
============================================================================
Comments