Green Day - The Grouch Chords & Tabs

 

The Grouch Chords & Tabs

Green Day Chords & Tabs

Version: 1 Type: Bass Tab 0 ratings
1 star 2 stars 3 stars 4 stars 5 stars
comments

The Grouch Bass Tab

Song:The Grouch
Artist: Green Day 
Album: Nimrod (Track 3)
Tabbed By: Someone that did not leave there name
Corrections by: James G. (JPG228@hotmail.com) 2/1/01
 
I have played this song over and over. Just listen to the song and it will 
be easy to follow from there. 
 
 (Here you come in after the guitar intro)
 
     Intro/Bridge
G|---------------------------|
D|---------------------------|
A|-----------05--------------|
E|--05-00-05----05-00-055555-|
     
 
G------------------------------------------------
D------------------------------------------------
A-----------05-------05-------------05-----------
E--05-00-05----05-00----00-05-00-05----05-00-0555
 
 
 
     Verse
G-----------------------------|-------------------------------------------
D-----------------------------|-------------------------------------------
A-----05-----------055--------|----05------------055-----5/77777-5/77777--
E--02----05-00-022-----055-000|-02----05-00--022-----055------------------
 (Wasted youth and a fist full of ideals. I had an young...point of veiw!)
 

Intro/Bridge (play the second line of the intro twice)
 
Verse
 
Intro/Bridge (play the second line only once)
 
Verse (After this time you wait like in the beging for the guitar solo)
 
Intro/Bridge (Play both lines this time)
 
G--------------------------------------
D--------------------------------------
A--------------------------------------
E--05-00-055555-05-00-0555555555-------
      
 (There you go, that is the whole song, have fun!!!)

[ Tab from: http://www.guitartabs.cc/tabs/g/green_day/the_grouch_btab.html ]
Comments