Green Day - Tell Me When Its Time To Say I Love You Chords & Tabs

 

Tell Me When Its Time To Say I Love You Chords & Tabs

Green Day Chords & Tabs

Version: 4 Type: Tab 0 ratings
1 star 2 stars 3 stars 4 stars 5 stars
comments

Tell Me When Its Time To Say I Love You Tab

-------------------------------------------------------------------------------------
                                Green Day - When It's Time (Solo)
-------------------------------------------------------------------------------------

Tabbed by: tomatpasser

Tuning: Standard
[ Tab from: http://www.guitartabs.cc/tabs/g/green_day/tell_me_when_its_time_to_say_i_love_you_tab_ver_4.html ]
e|-3-----------2------------2---------2------------------------------0--------0------| x2
B|----3-----3-----3-----5-----5----5-----5--3---5--------3--------7---------7-----7--|
G|-------0-----------4-----------------------------5--------4-----------7-------7----|
D|----------------------------------------------------5--------5---------------------|
A|-----------------------------------------------------------------------------------|
E|-----------------------------------------------------------------------------------|

That's how i play it
Comments