Green Day - Take Back Chords & Tabs

 

Take Back Chords & Tabs

Green Day Chords & Tabs

Version: 4 Type: Tab 0 ratings
1 star 2 stars 3 stars 4 stars 5 stars
comments

Take Back Tab

Verse
e|------------------------------------------------------------------------------|
B|------------------------------------------------------------------------------|
G|------------------------------------------------------------------------------|
D|----9-9-9-9-9-9-7-7-7-10-10-10-9-9-9-9-9-9-7-7-7-10-10-10---------------------|
A|----9-9-9-9-9-9-7-7-7-10-10-10-9-9-9-9-9-9-7-7-7-10-10-10---------------------|
E|----7-7-7-7-7-7-5-5-5-8--8--8--7-7-7-7-7-7-5-5-5-8--8--8----------------------|
Chorus
e|------------------------------------------------------------------------------|
B|------------------------------------------------------------------------------|
G|----------------------9-9-9-------------------9-9-9---------------------------|
D|----9-9-9-9-9-9-8-8-8-9-9-9-9-9-9-9-9-9-8-8-8-9-9-9---------------------------|
A|----9-9-9-9-9-9-8-8-8-7-7-7-9-9-9-9-9-9-8-8-8-7-7-7---------------------------|
E|----7-7-7-7-7-7-6-6-6-------7-7-7-7-7-7-6-6-6---------------------------------|
Last Stand
e|---------------------------------------------------------------------------|
B|---------------------------------------------------------------------------|
G|---------------------------------------------------------------------------|
D|--9-------------------------------------------------------9-9--------------|
A|--9-------------------------------------------------------9-9--------------|
E|--7-------------------------------------------------------7-7--------------|

Order

Verse x4
Chorus
Verse x4
Chorus x2
Verse x2
Last Stand
[ Tab from: http://www.guitartabs.cc/tabs/g/green_day/take_back_tab_ver_4.html ]
Comments