Green Day - Sweet Children Chords & Tabs

 

Sweet Children Chords & Tabs

Green Day Chords & Tabs

Version: 1 Type: Bass Tab

Sweet Children Bass Tab

   
-----------------------------------------------------------------------------
			    Sweet Children - Green Day
-----------------------------------------------------------------------------

Tabbed By : Chris
e-mail: cmc_41@msn.com
Album: Kerplunk (1992)
Track: 13
Tuning:Standard
Bass: Mike Drint

Intro/Verse/Bridge:

G|------------------------|
D|------------------------|
A|--6-6-666------4-44-----|
E|-----------444----------|

Intro x4

Verse x8


Chorus:
"Sweet Children..."
[ Tab from: http://www.guitartabs.cc/tabs/g/green_day/sweet_children_btab.html ]
  
G|-----------------------|
D|-----------------------|
A|---6-66666666---4------|
E|--------------4---6-4--|

Chorus x4

Bridge x2

Verse x8

Chorus x4

Interlude:

G|----------------------|
D|----------------------|
A|------------4---------|
E|-6-666666-4---6-4-----|

Interlude x4

Chorus x8

Outro:

G|----------|
D|----------|
A|----------|
E|---4---4--|


| /  slide up
| \  slide down
| h  hammer-on
| p  pull-off
| ~  vibrato
| +  harmonic
| x  Mute note
=============================================================================