Green Day - Suffocate Chords & Tabs

 

Suffocate Chords & Tabs

Green Day Chords & Tabs

Version: 3 Type: Tab 0 ratings
1 star 2 stars 3 stars 4 stars 5 stars
comments

Suffocate Tab

make sure you get the tuning right

Intro/Verses: "3am i'm drunk again....."
D#-------------------------------------------------------------
a#-------------------------------------------------------------
f#-7777777777777777777777777777--------------------------------
c#-7777777777777777777777777777-555555-7777777-555555-7777777--
 b-5555555555555555555555555555-555555-7777777-555555-7777777--
d#------------------------------333333-5555555-333333-5555555--
 pm............................  
[ Tab from: http://www.guitartabs.cc/tabs/g/green_day/suffocate_tab_ver_3.html ]
  "Slipped into a coma once again
D#------------------------------------------------------
a#------------------------------------------------------
f#-----------------------------77777777777--------------
c#-555555555555555555555555555-77777777777---x2---------
 b-555555555555555555555555555-55555555555--------------
d#-333333333333333333333333333--------------------------

Choruses: "So when u think youre all alone.."
D#------------------------------------
a#------------------------------------
f#--------7-------7----7----7---------
c#-555555-7-77-x5-7-77-7-77-7-77------
 b-555555-5-77----5-77-5-77-5-77------
d#-333333---55------55---55---55------

Solo
D#-----------------------------------------
a#-----------------------------------------
f#---7-------7----7----7-------------------
c#-5-7-77-x3-7-77-7-77-7-77777777777------- After solo go back to the chorus
 b-5-5-77----5-77-5-77-5-77777777777-------
d#-3---55------55---55---55555555555-------

Outro:
D#-----------------------------
a#-----------------------------
f#---7-------7----7----7-------
c#-5-7-77-x3-7-77-7-77-7-77---- let the last chord ring
 b-5-5-77----5-77-5-77-5-77----
d#-3---55------55---55---55----
Comments