Green Day - Suffocate Chords & Tabs

 

Suffocate Chords & Tabs

Green Day Chords & Tabs

Version: 1 Type: Tab 0 ratings
1 star 2 stars 3 stars 4 stars 5 stars
comments

Suffocate Tab

   
Title: Suffocate
Artist: Green Day
Album: Shenanigans
Track: 1

This is a classic Green Day song... GEART!!

Also, tine down 1/2 step, or play 1/2 step down.

Intro
p.m.______________________
|-------------------------|
|-------------------------|
|-7-7-7-7-7-7-7-7-7-7-7-7-|
|-7-7-7-7-7-7-7-7-7-7-7-7-|
|-5-5-5-5-5-5-5-5-5-5-5-5-|
|-------------------------|

Verse
|-------------|-------------------------------------------------|
|-------------|-------------------------------------------------|
|-7--24-times-|-------------------------------------------------|
|-7----p.m.---|-5-5-5-5-5-5-7-7-7-7-7-7-5-5-5-5-5-5-7-7-7-7-7-7-|
|-5-----------|-5-5-5-5-5-5-7-7-7-7-7-7-5-5-5-5-5-5-7-7-7-7-7-7-|
|-------------|-3-3-3-3-3-3-5-5-5-5-5-5-3-3-3-3-3-3-5-5-5-5-5-5-|
[ Tab from: http://www.guitartabs.cc/tabs/g/green_day/suffocate_tab.html ]
Pre Chorus
|-------------|-------------------------|
|-------------|-------------------------|
|-------------|-7-7-7-7-7-7-7-7-7-7-7-7-|
|-5--24-times-|-7-7-7-7-7-7-7-7-7-7-7-7-|
|-5-----------|-5-5-5-5-5-5-5-5-5-5-5-5-|
|-3-----------|-------------------------|

Chorus
|-------------------------|--------------|
|-------------------------|--------------|
|-7-7-7-7-7-7-------------|-play-3-times-|
|-7-7-7-7-7-7-5-5-5-7-7-7-|--------------|
|-5-5-5-5-5-5-5-5-5-7-7-7-|--------------|
|-------------3-3-3-5-5-5-|--------------|

|-----------------------------|
|-----------------------------|
|--------------7--------------|
|-5-5-5-5-5-5--7--7-7-7-7-7-7-|
|-5-5-5-5-5-5--5--7-7-7-7-7-7-|
|-3-3-3-3-3-3-----5-5-5-5-5-5-|

|------------------------------------------|
|------------------------------------------|
|---------------7-------------7------------|
|-5--7-7-7-7-7--7--7-7-7-7-7--7--7-7-7-7-7-|
|-5--7-7-7-7-7--5--7-7-7-7-7--5--7-7-7-7-7-|
|-3--5-5-5-5-5-----5-5-5-5-5-----5-5-5-5-5-|

Bridge
|-------------------|
|-------------------|
|---------7---------|
|-5-xxxxx-7-7-xxxxx-|
|-5-xxxxx-5-7-xxxxx-|
|-3-xxxxx---5-xxxxx-|



  J.A.B.






Comments