Green Day - Stuck With Me Chords & Tabs

 

Stuck With Me Chords & Tabs

Green Day Chords & Tabs

Version: 1 Type: Tab 0 ratings
1 star 2 stars 3 stars 4 stars 5 stars
comments

Stuck With Me Tab

   
Green Day, Stuck With Me.
 Tabbed by Sebastian Lapidus,email.
  
STUCK WITH ME 
=GREEN DAY=

tune your guitar 1/2 step down.

Intro:

e|----------------------------------|
B|----------------------------------|
G|-9-9-9-9-9-9----------------------|
D|-9-9-9-9-9-9--11-9--7-7-7-7-7-7-7-|  X 2
A|-7-7-7-7-7-7--11-9--7-7-7-7-7-7-7-|
E|--------------9--7--5-5-5-5-5-5-5-|

Verse: played twice (2nd time without palm muted)

e|------------------------------------------
B|------------------------------------------
G|-9-9-9-9-9-9-9-9--------------------------
D|-9-9-9-9-9-9-9-9--9-9-9-9-9-9-9-9-7-7-7-7-
A|-7-7-7-7-7-7-7-7--9-9-9-9-9-9-9-9-7-7-7-7-
E|------------------7-7-7-7-7-7-7-7-5-5-5-5-
 PM________________ 

  -----------------|
  -----------------|
  -----------------|
  -7-7-7-7-9-9-9-9-|
  -7-7-7-7-9-9-9-9-|
  -5-5-5-5-7-7-7-7-|

Chorus:
[ Tab from: http://www.guitartabs.cc/tabs/g/green_day/stuck_with_me_tab.html ]
e|---------------------------|
B|---------------------------|
G|-6-6-6-6-6-6-----9-9-9-9-9-| x3
D|-6-6-6-6-6-6-7-7-9-9-9-9-9-|
A|-4-4-4-4-4-4-7-7-7-7-7-7-7-|
E|-------------5-5-----------|

And then:

e|---------------------------|
B|---------------------------|
G|-----------------9-9-9-9-9-|
D|-7-7-7-7-9-9-9-9-9-9-9-9-9-|
A|-7-7-7-7-9-9-9-9-7-7-7-7-7-|
E|-5-5-5-5-7-7-7-7-----------|
  \"Well, I am allright\"

Repeat verse:(This time the 1st part is played without palm mute, but the 2nd time is played with pm)

Repeat chorus

Repeat intro

Bridge:

e|--------------------------|
B|--------------------------|
G|--------------------------| x 2
D|--------------------------|
A|-9-9-9-9-9-9--7-7-7-7-7-7-|
E|-7-7-7-7-7-7--5-5-5-5-5-5-|

Repeat chorus.

That's all. If You want; you can improvise in the instrumental part with this scale:

e|----------------------------------------11-12-|
B|----------------------------------12-14-------|
G|-------------------------11-13-14-------------|
D|----------------11-13-14----------------------|
A|-------11-12-14-------------------------------|
E|-12-14----------------------------------------| 
:: Ultimate Guitar Archive :: 
http://www.ultimate-guitar.com 



Comments