Green Day - Stuck With Me Chords & Tabs

 

Stuck With Me Chords & Tabs

Green Day Chords & Tabs

Version: 4 Type: Bass Tab 0 ratings
1 star 2 stars 3 stars 4 stars 5 stars
comments

Stuck With Me Bass Tab

Green Day -> Stuck With Me (Insomniac)

Intro
G:--------------------------------------------
D:------------- 7-6h7-4-6-7-6-----------------
A:777777-4-2-00-------------------------------
E:--------------------------------------------

G:--------------------------------------------
D:-------9-7-6-77-66----66-77-66----66--------
A:777777-------------99----------99-----------
E:--------------------------------------------

"I'm not part of your elite...........
G:--------------------------------------------
D:-------------------7--7-------7--7----------
A:77777777------------------------------------
E:---------77777777-5--5--7777-5--5---7777----

"Not subservient to you...............
G:--------------------------------------------
D:-------------------7--7-------7--7----------
A:77777777------------------------------------
E:---------77777777-5--5--7777-5--5---7777----
[ Tab from: http://www.guitartabs.cc/tabs/g/green_day/stuck_with_me_btab_ver_4.html ]
"Cast out................Buried in a hole"
G:---------------------99---------9-----------
D:------6-7------99----------99---------------
A:44444-----5-77----77----77----77------------
E:-------5------------------------------------

"Struck down.....forcing me to fall"
G:--------------------------------------------
D:------6-7-----------------------------------
A:44444-----5-7777777-66-77-9-----------------
E:-------5------------------------------------

"Destroyed.........giving up the fight"
G:----------------------------------------------
D:-----6-7------------------7--7----------------
A:4444-----5-777777-66-----------------777777777
E:------5-------------99-7-5--5--5-7777---------

Bass Solo
G:-----------------------------------------------------------
D:----------6-7-8-9-7-6-------------------------9-7-6--------
A:----6-7-9-------------9-7-6--------6-7-9-7-6-------9-7-6-7-
E:7-9-------------------------9-7---9---------9--------------

Figured out by Luiz Manzano (Brasil)
Comments