Green Day - Stuart And The Ave Chords & Tabs

 

Stuart And The Ave Chords & Tabs

Green Day Chords & Tabs

Version: 1 Type: Tab 2 ratings
1 star 2 stars 3 stars 4 stars 5 stars
comments

Stuart And The Ave Tab

   
Tabbed by: Sam Champness
Email:
Song: Stuart And The Ave
Tuning: Half Step Down

Intro
e|----||------------------------------------------------------|
B|----||------------------------------------------------------|
G|--7-||--------------7-7-7-7---------------------------------|
D|--7-||--7-7-7-7-7---7-7-7-7---2-2-2-2---5-5-5-5---7-7-7-7---|
A|--5-||--7-7-7-7-7---5-5-5-5---2-2-2-2---5-5-5-5---7-7-7-7---|
E|----||--5-5-5-5-5-------------0-0-0-0---3-3-3-3---5-5-5-5---|

Verse
e|--------------------------------------------------------------------------------|
B|--------------------------------------------------------------------------------|
G|-7-7-7-7-----------------------7-7-7-7----7-7-7-7-------------------------------|
D|-7-7-7-7---2-2-2-2---5-5-5-5---7-7-7-7----7-7-7-7---2-2-2-2---5-5-5-5---7-7-7-7-|
A|-5-5-5-5---2-2-2-2---5-5-5-5---5-5-5-5----5-5-5-5---2-2-2-2---5-5-5-5---7-7-7-7-|
E|-----------0-0-0-0---3-3-3-3------------------------0-0-0-0---3-3-3-3---5-5-5-5-|
[ Tab from: http://www.guitartabs.cc/tabs/g/green_day/stuart_and_the_ave_tab.html ]
Chorus
e|---------------------|-----------------------------||----------------|
B|---------------------|-----------------------------||----------------|
G|---------------------|--7-7-7-7--------------------||7-7-7-7---------| 
D|-9-9-9-9--5-5-5-5----|--7-7-7-7--2-2-2-2--5-5-5-5--||7-7-7-7--7-7-7-- 
A|-9-9-9-9--5-5-5-5----|--5-5-5-5--2-2-2-2--5-5-5-5--||5-5-5-5--7-7-7--|
E|-7-7-7-7--3-3-3-3-X2-|-----------0-0-0-0--3-3-3-3--||---------5-5-5--|

Bridge
e|--------------------------------------------------------------------------------|
B|--------------------------------------------------------------------------------|
G|-7-7-7-7-----------------------7-7-7-7----7-7-7-7-------------------------------|
D|-7-7-7-7---2-2-2-2---5-5-5-5---7-7-7-7----7-7-7-7---2-2-2-2---5-5-5-5---7-7-7-7-|
A|-5-5-5-5---2-2-2-2---5-5-5-5---5-5-5-5----5-5-5-5---2-2-2-2---5-5-5-5---7-7-7-7-|
E|-----------0-0-0-0---3-3-3-3------------------------0-0-0-0---3-3-3-3---5-5-5-5-|


Ending
e|--------------------------------|
B|--------------------------------|
G|-7-7-------7-7--------7---------|
D|-7-7--7-7--7-7--7-7---7---------|
A|-5-5--7-7--5-5--7-7---5-~~~~----|
E|------5-5-------5-5-------------|ENJOY!!! PLEASE RATE!!

ORDER
INTRO
VERSE
CHORUS
INTRO
VERSE
CHORUS
BRIDGE
CHORUS
ENDING

| /  slide up
| \  slide down
| h  hammer-on
| p  pull-off
| ~  vibrato
| +  harmonic
| x  Mute note
===============================================================================			 
Comments