Green Day - Stray Heart Chords & Tabs

 

Stray Heart Chords & Tabs

Green Day Chords & Tabs

Version: 1 Type: Tab 0 ratings
1 star 2 stars 3 stars 4 stars 5 stars
comments

Stray Heart Tab

Artist: Green Day
Album: ĄDOS!
Song: Stray Heart
Instrument: Guitar
Submitter: GuitarPunk94

Feel free to rate + comment! Join the GreenDayCommunity(GDC) :-)

Standard Tuning


Key:

-  - Nothing
~  - Let notes ring
(7b) - Bend string to fret
h  - Hammer on
/ - Slide up or down



 Verse 1: Pre-Chorus:
|-7---7---4-4-4-4-4-4-4-4-0-0-2-2-7-7-7-7---4-4-4-4-|
|-9---9---4-4-4-4-5-5-5-5-2-2-4-4-9-9-9-9---4-4-4-4-|
|-9---9---4-4-4-4-6-6-6-6-2-2-4-4-9-9-9-9---4-4-4-4-|
|-9---9---6-6-6-6-6-6-6-6-2-2-4-4-9-9-9-9---6-6-6-6-|
|-7---7---6-6-6-6-4-4-4-4-0-0-2-2-7-7-7-7---6-6-6-6-|
|---------4-4-4-4---------------------------4-4-4-4-|

                         Chorus:
                                  |2x***************|
|4-4-4-4-0-0-0-0-0-------33333355-7777-4444-0000-0000-0-|
|5-5-5-5-2-2-2-2-1-------55555577-9999-4444-2222-1111-1-|
|6-6-6-6-2-2-2-2-2-------55555577-9999-4444-2222-2222-2-|
|6-6-6-6-2-2-2-2-2-------55555577-9999-6666-2222-2222-2-|
|4-4-4-4-0-0-0-0-0-------33333355-7777-6666-0000-0000-0-|
|--------------------------------------4444-------------|

 Verse 2: Pre-Chorus:
|-7---7---4-4-4-4-4-4-4-4-0-0-2-2-7-7-7-7---4-4-4-4-|
|-9---9---4-4-4-4-5-5-5-5-2-2-4-4-9-9-9-9---4-4-4-4-|
|-9---9---4-4-4-4-6-6-6-6-2-2-4-4-9-9-9-9---4-4-4-4-|
|-9---9---6-6-6-6-6-6-6-6-2-2-4-4-9-9-9-9---6-6-6-6-|
|-7---7---6-6-6-6-4-4-4-4-0-0-2-2-7-7-7-7---6-6-6-6-|
|---------4-4-4-4---------------------------4-4-4-4-|

                         Chorus:
                                  |2x***************|
|4-4-4-4-0-0-0-0-0-------33333355-7777-4444-0000-0000-0000-|
|5-5-5-5-2-2-2-2-1-------55555577-9999-4444-2222-1111-1111-|
|6-6-6-6-2-2-2-2-2-------55555577-9999-4444-2222-2222-2222-|
|6-6-6-6-2-2-2-2-2-------55555577-9999-6666-2222-2222-2222-|
|4-4-4-4-0-0-0-0-0-------33333355-7777-6666-0000-0000-0000-|
|--------------------------------------4444----------------|
[ Tab from: http://www.guitartabs.cc/tabs/g/green_day/stray_heart_tab.html ]
 Solo:
|-/7~7~7~7~\----------/7~7~7~7~/11~11~/13b14~13b14~\-|
|-----------/7~7~7~7~\-------------------------------|
|----------------------------------------------------|
|----------------------------------------------------|
|----------------------------------------------------|
|----------------------------------------------------|

|4-4-4--4-4-44444-4-4-4--4444-4444444------------------------|
|5-5-5--5-5-55555-4-4-4--44h5-5555555-55-44-2-0-/55-44-22-00-|
|4-4-4--4-4-44444-4-4-4--4444-4444444------------------------|
|------------------------------------------------------------|
|------------------------------------------------------------|
|------------------------------------------------------------|

|-----------------4-4-4-4444h7-444--4-4-4--4444-4444444-|
|-222-20-000-000--5-5-5-5555-5-555--4-4-4--44h5-5555555-|
|-----------------4-4-4-4444-4-444--4-4-4--4444-4444444-|
|-------------------------------------------------------|
|-------------------------------------------------------|
|-------------------------------------------------------|

|5-5-5--544-44-444-----------------------------|
|5-5-5--555-55-555--5--5--5-/7--7-7-7--7-7-7-\-|
|6-6-6--644-44-444--7b-7b-7b/9b-9b9b9b-9b9b9b\-|
|----------------------------------------------|
|----------------------------------------------|
|----------------------------------------------|

 Pre-Chorus:
|4444-4444-000-2222-7777--4444-4444-0000-0----------|
|4444-5555-222-4444-9999--4444-5555-2222-1----------|
|4444-6666-222-4444-9999--4444-6666-2222-2----------|
|6666-6666-222-4444-9999--6666-6666-2222-2----------|
|6666-4444-000-2222-7777--6666-4444-0000-0----------|
|4444---------------------4444----------------------|

 Chorus:
          |3x***************|
|33333355-7777-4444-0000-0000-------------------------4\-7--7\|
|55555577-9999-4444-2222-1111-/55554/55554/55554/5555-5\-9--9\|
|55555577-9999-4444-2222-2222-------------------------4\-9--9\|
|55555577-9999-6666-2222-2222----------------------------9--9\|
|33333355-7777-6666-0000-0000----------------------------7--7\|
|--------------4444-------------------------------------------|
Comments