Green Day - St Jimmy Chords & Tabs

 

St Jimmy Chords & Tabs

Green Day Chords & Tabs

Version: 1 Type: Chords 8 ratings
1 star 2 stars 3 stars 4 stars 5 stars
comments

St Jimmy Chords

   
St. Jimmy
Music: Green Day
Album: American Idiot (2004)
Tab By: reizig (reizig@hotmail.com)

Standard Tuning (E A D G B E)

This song is tabbed out as a Tab as well as chords over 
lyrics.  Scroll down for the second version.

------------------------------------------------------------
Tab
------------------------------------------------------------

Intro:
Second guitar is palm muting the open A string.
   A5	    D5 A5  x4  	 A5     D5 A5
e|-------------------------------------|
B|-------------------------------------|
G|----------7-------------------7------|
D|-7--------7--7---------7------7--7---|
A|-7--------5--7---------7------5--7---|
E|-5-----------5---------5---------5---|

Verse:
   A5	D5   E5	  A5  x6
e|--------------------|
B|--------------------|
G|------7----9--------|
D|-7----7----9----7---|
A|-7----5----7----7---|
E|-5--------------5---|

Chorus:
   D5      A5      D5      E5  
e|-----------------------------|
B|-----------------------------|
G|-7---------------7-------9---|
D|-7-------7-------7-------9---|
A|-5-------7-------5-------7---|
E|---------5-------------------|
[ Tab from: http://www.guitartabs.cc/tabs/g/green_day/st_jimmy_crd.html ]
Interlude:
   A5    D5 A5 D5 E5  x4
e|--------------------|
B|--------------------|
G|-------7-----7--9---|
D|-7-----7--7--7--9---|
A|-7-----5--7--5--7---|
E|-5--------5---------|

   A5   E5   C5   D#5 x4
e|--------------------|
B|--------------------|
G|------9----5----8---|
D|-7----9----5----8---|
A|-7----7----3----6---|
E|-5------------------|

   A5        D5        E5        A5
e|---------------------------------------------|
B|---------------------------------------------|
G|-----------7-7-7-7---9-9-9-9---14-14-14-14---|
D|-7-7-7-7---7-7-7-7---9-9-9-9---14-14-14-14---|
A|-7-7-7-7---5-5-5-5---7-7-7-7---12-12-12-12---|
E|-5-5-5-5-------------------------------------|

   A5        D5        E5           
e|-----------------------------------------------|
B|-----------------------------------------------|
G|-----------7-7-7-7---9-9-9-9-9-9-9-9-9-9-9-9-9-|
D|-7-7-7-7---7-7-7-7---9-9-9-9-9-9-9-9-9-9-9-9-9-|
A|-7-7-7-7---5-5-5-5---7-7-7-7-7-7-7-7-7-7-7-7-7-|
E|-5-5-5-5---------------------------------------|

Bridge:
   A5       D5       G5   D5   E5  x5
e|---------------------------------|
B|---------------------------------|
G|----------7-------------7--------|
D|-7--------7--------5----7----7---|
A|-7--------5--------5----5----7---|
E|-5-----------------3---------5---|

Behind the first repitition of the bridge is a second guitar
playing this:
   A5             D5             G5    D5     E5  (
Comments