Green Day - St Jimmy Chords & Tabs

 

St Jimmy Chords & Tabs

Green Day Chords & Tabs

Version: 2 Type: Bass Tab 0 ratings
1 star 2 stars 3 stars 4 stars 5 stars
comments

St Jimmy Bass Tab

Tabber: Ashley

Intro
G|-------------------------------------------------------------------|
D|-------------------------------------------------------------------|
A|--------5------5--------5--------5--------5--------5------7---5----|
E|--5--------5------5---------5--------5--------5--------------------|

       verse
G|------------------------------------|
D|------------------------------------|
A|---------55555-----77777------------|
E|--55555-------------------55555-----|

        chorus
G|-----------------------------------------------------------|
D|-----------------------------------------------------------|
A|----55555555----------------55555555-----7-7-7-7-777-------|
E|----------------5555555------------------------------------|

       verse
G|----------------------------------------------|
D|----------------------------------------------|
A|---------55555-----77777-------12--12--12-----|
E|--55555---------------------------------------|

        chorus
G|-----------------------------------------------------------|
D|-----------------------------------------------------------|
A|----55555555----------------55555555-----7-7-7-7-777-------|
E|----------------5555555------------------------------------|
[ Tab from: http://www.guitartabs.cc/tabs/g/green_day/st_jimmy_btab_ver_2.html ]
       bridge
G|--------------------------|
D|--------------------------|
A|-------5-0-5---7777777----|   x4
E|----5---------------------|

       bridge 2
G|---------------------------------------------------------|
D|---------------------------------------------------------|
A|----------------7777777-----333333------666666-----------|     x4
E|------555555---------------------------------------------|


       bridge 3
G|----------------------------------------------------------------------------|
D|----------------------------------------------------------------------------|
A|-------------5555----7777---12-12-12-12---12-12-12-12--5555---7777777777777-|  hold note
E|-------5555-----------------------------------------------------------------|

        outro
G|-----------------------------------------------|
D|-----------------------------------------------|
A|---------------55555-----33--55----------------|  x5
E|--------55555--------------------555-----------|


        outro
G|----------------------------------------------------------------------------|
D|----------------------------------------------------------------------------|
A|----------5--77-----------5--77----------777777-----------7777--------------|
E|------55---------5----55---------5---------------5--------------------------|
Comments