Green Day - Shoplifter Chords & Tabs

 

Shoplifter Chords & Tabs

Green Day Chords & Tabs

Version: 1 Type: Tab

Shoplifter Tab

   
(Little Drum Intro)

Intro
E[--------------------------------------------------------]
B[--------------------------------------------------------]
G[-----------------2---2----------------------------------]
D[-2---2---2---2---2---2---2---2--------------------------] x1
A[-2---2---2---2---0---0---2---2--------------------------]
E[-0---0---0---0-----------0---0--------------------------]

Intro Continued
E[--------------------------------------------------------]
B[--------------------------------------------------------]
G[-----------------4-4-4-4--------------------------------]
D[-2---2---2---2---4-4-4-4--------------------------------] x1
A[-2---2---2---2---2-2-2-2--------------------------------]
E[-0---0---0---0------------------------------------------]


Verse
E[--------------------------------------------------------]
B[--------------------------------------------------------]
G[-----------------2---2----------------------------------]
D[-2---2---2---2---2---2---2---2--------------------------] x1
A[-2---2---2---2---0---0---2---2--------------------------]
E[-0---0---0---0-----------0---0--------------------------]
 (Shoplifter youíll never learn...)

Verse Continued
E[--------------------------------------------------------]
B[--------------------------------------------------------]
G[-----------------4-4-4-4--------------------------------]
D[-2---2---2---2---4-4-4-4--------------------------------] x1
A[-2---2---2---2---2-2-2-2--------------------------------]
E[-0---0---0---0------------------------------------------]
(When you commit the crime...)

Verse Continued
E[--------------------------------------------------------]
B[--------------------------------------------------------]
G[-----------------2---2----------------------------------]
D[-2---2---2---2---2---2---2---2--------------------------] x1
A[-2---2---2---2---0---0---2---2--------------------------]
E[-0---0---0---0-----------0---0--------------------------]
(Shoplifter youíre getting burned...)

Verse Continued
E[--------------------------------------------------------]
B[--------------------------------------------------------]
G[-----------------4---4----------------------------------]
D[-2---2---2---2---4---4---2---2--------------------------] x1
A[-2---2---2---2---2---2---2---2--------------------------]
E[-0---0---0---0-----------0---0--------------------------]
(And now you gotta do the time...)

Verse Continued
E[--------------------------------------------------------]
B[--------------------------------------------------------]
G[-----------------2---2----------------------------------]
D[-2---2---2---2---2---2---2---2--------------------------] x1
A[-2---2---2---2---0---0---2---2--------------------------]
E[-0---0---0---0-----------0---0--------------------------]
(Well thatís a 1,2,3 on a felony...)

Verse Continued
E[--------------------------------------------------------]
B[--------------------------------------------------------]
G[-----------------4-4-4-4--------------------------------]
D[-2---2---2---2---4-4-4-4--------------------------------] x1
A[-2---2---2---2---2-2-2-2--------------------------------]
E[-0---0---0---0------------------------------------------]
(Well not everything is free...)

Verse Continued
E[--------------------------------------------------------]
B[--------------------------------------------------------]
G[-----------------2---2----------------------------------]
D[-2---2---2---2---2---2---2---2--------------------------] x1
A[-2---2---2---2---0---0---2---2--------------------------]
E[-0---0---0---0-----------0---0--------------------------]
(Now that youíve served the community...)

Verse Continued
E[--------------------------------------------------------]
B[--------------------------------------------------------]
G[-----------------4---4----------------------------------]
D[-2---2---2---2---4---4---2---2--------------------------] x1
A[-2---2---2---2---2---2---2---2--------------------------]
E[-0---0---0---0-----------0---0--------------------------]
(You lead the life of a petty thief...)

Chorus
E[---------------------------------------------------------------------------|
B[---------------------------------------------------------------------------|
G[-------------6-6-6-6-6-6-6-6-6-6-6-6-6-6-6-6-6-6-6-------------------------|
D[-------------6-6-6-6-6-6-6-6-6-6-6-6-6-6-6-6-6-6-6-2-2-2-2-2-2-2-----------|
A[-------------4-4-4-4-4-4-4-4-4-4-4-4-4-4-4-4-4-4-4-2-2-2-2-2-2-2-----------|
E[---------------------------------------------------0-0-0-0-0-0-0-----------|
(Itís not considered stealing, unless youíre getting caught...)

Chorus Continued
E[------------------------------------------------------------------------]
B[------------------------------------------------------------------------]
G[-------------6-6-6-6-6-6-6-6-6-6-6-6-6-6-6-6-6-6-6-2-2-2-2-44xx44-------]
D[-------------6-6-6-6-6-6-6-6-6-6-6-6-6-6-6-6-6-6-6-2-2-2-2-44xx44-------]
A[-------------4-4-4-4-4-4-4-4-4-4-4-4-4-4-4-4-4-4-4-0-0-0-0-22xx22-------]
E[------------------------------------------------------------------------]
(But youíve been caught stealing, tryiní to take somethiní you 
got...)

Verse
E[--------------------------------------------------------]
B[--------------------------------------------------------]
G[-----------------2---2----------------------------------]
D[-2---2---2---2---2---2---2---2--------------------------] x1
A[-2---2---2---2---0---0---2---2--------------------------]
E[-0---0---0---0-----------0---0--------------------------]
(Shoplifter youíll never learn...)

Verse Continued
E[--------------------------------------------------------]
B[--------------------------------------------------------]
G[-----------------4-4-4-4--------------------------------]
D[-2---2---2---2---4-4-4-4--------------------------------] x1
A[-2---2---2---2---2-2-2-2--------------------------------]
E[-0---0---0---0------------------------------------------]
(With eyes behind your back...)
[ Tab from: http://www.guitartabs.cc/tabs/g/green_day/shoplifter_tab.html ]
Verse Continued
E[--------------------------------------------------------]
B[--------------------------------------------------------]
G[-----------------2---2----------------------------------]
D[-2---2---2---2---2---2---2---2--------------------------] x1
A[-2---2---2---2---0---0---2---2--------------------------]
E[-0---0---0---0-----------0---0--------------------------]
(Not a burglar or a bank robber...)

Verse Continued
E[--------------------------------------------------------]
B[--------------------------------------------------------]
G[-----------------4---4----------------------------------]
D[-2---2---2---2---4---4---2---2--------------------------] x1
A[-2---2---2---2---2---2---2---2--------------------------]
E[-0---0---0---0-----------0---0--------------------------]
(Just a kleptomaniac...)

Bridge
E[---------------0----------------------------------------------------]
B[-----------------0---0----------------------------------------------]
G[-------------------0-----2---2-2------------------------------------]
D[-2---2---2---2-----------2---2---2---2---2--------------------------] x1
A[-2---2---2---2-----------0---0-------2---2--------------------------]
E[-0---0---0---0-----------------------0---0--------------------------]

Bridge Continued
E[---------------0---------------------------------------]
B[-----------------0---0---------------------------------]
G[-------------------0-----4-4-4---4---4-----------------]
D[-2---2---2---2-----------4-4---4---4---4---------------] x1
A[-2---2---2---2-----------2-2---------------------------]
E[-0---0---0---0-----------------------------------------]

Bridge Continued
E[---------------0----------------------------------------------------]
B[-----------------0---0----------------------------------------------]
G[-------------------0-----2---2-2------------------------------------]
D[-2---2---2---2-----------2---2---2---2---2--------------------------] x1
A[-2---2---2---2-----------0---0-------2---2--------------------------]
E[-0---0---0---0-----------------------0---0--------------------------]

Bride Continued
E[-------------------------------------]
B[-------------------------------------]
G[--------4-4--------------------------]
D[-2---2--4-4--2-2---------------------] x1
A[-2---2--2-2--2-2---------------------]
E[-0---0-------0-0---------------------]

Chorus
E[---------------------------------------------------------------------------|
B[---------------------------------------------------------------------------|
G[-------------6-6-6-6-6-6-6-6-6-6-6-6-6-6-6-6-6-6-6-------------------------|
D[-------------6-6-6-6-6-6-6-6-6-6-6-6-6-6-6-6-6-6-6-2-2-2-2-2-2-2-----------|
A[-------------4-4-4-4-4-4-4-4-4-4-4-4-4-4-4-4-4-4-4-2-2-2-2-2-2-2-----------|
E[---------------------------------------------------0-0-0-0-0-0-0-----------|
(Itís not considered stealing, unless youíre getting caught...)

Chorus Continued
E[------------------------------------------------------------------------]
B[------------------------------------------------------------------------]
G[-------------6-6-6-6-6-6-6-6-6-6-6-6-6-6-6-6-6-6-6-2-2-2-2-44xx44-------]
D[-------------6-6-6-6-6-6-6-6-6-6-6-6-6-6-6-6-6-6-6-2-2-2-2-44xx44-------]
A[-------------4-4-4-4-4-4-4-4-4-4-4-4-4-4-4-4-4-4-4-0-0-0-0-22xx22-------]
E[------------------------------------------------------------------------]
(But youíve been caught stealing, tryiní to take somethiní you 
got...)

Verse
E[--------------------------------------------------------]
B[--------------------------------------------------------]
G[-----------------2---2----------------------------------]
D[-2---2---2---2---2---2---2---2--------------------------] x1
A[-2---2---2---2---0---0---2---2--------------------------]
E[-0---0---0---0-----------0---0--------------------------]
 (Shoplifter youíll never learn...)

Verse Continued
E[--------------------------------------------------------]
B[--------------------------------------------------------]
G[-----------------4-4-4-4--------------------------------]
D[-2---2---2---2---4-4-4-4--------------------------------] x1
A[-2---2---2---2---2-2-2-2--------------------------------]
E[-0---0---0---0------------------------------------------]
(When you commit the crime...)

Verse Continued
E[--------------------------------------------------------]
B[--------------------------------------------------------]
G[-----------------2---2----------------------------------]
D[-2---2---2---2---2---2---2---2--------------------------] x1
A[-2---2---2---2---0---0---2---2--------------------------]
E[-0---0---0---0-----------0---0--------------------------]
(Shoplifter youíre getting burned...)

Verse Continued
E[--------------------------------------------------------]
B[--------------------------------------------------------]
G[-----------------4---4----------------------------------]
D[-2---2---2---2---4---4---2---2--------------------------] x1
A[-2---2---2---2---2---2---2---2--------------------------]
E[-0---0---0---0-----------0---0--------------------------]
(And now you gotta do the time...)

Outro
E[---------0--------------------------------------------]
B[-----------0------------------------------------------]
G[--------------4---4-----------------------------------]
D[-2---2--------4-----4--2---2--------------------------] x1
A[-2---2--------2--------2---2--------------------------]
E[-0---0-----------------0---0--------------------------]
(And now you gotta some time...)

Outro Continued
E[---------0--------------------------------------------]
B[-----------0------------------------------------------]
G[--------------4---4-----------------------------------]
D[-2---2--------4-----4--2---2--------------------------] x1
A[-2---2--------2--------2---2--------------------------]
E[-0---0-----------------0---0--------------------------]
(Well now you gotta some time...)

End On
E[---]
B[---]
G[---]
D[-2-] x1
A[-2-]
E[-0-]

Probably not 100%, but this is the first tab for this song and I did my best...