Green Day - She's A Rebel Chords & Tabs

 

She's A Rebel Chords & Tabs

Green Day Chords & Tabs

Version: 2 Type: Tab 0 ratings
1 star 2 stars 3 stars 4 stars 5 stars
comments

She's A Rebel Tab

Enjoy!(short and sweet)

reizig@gmail.com

Verse:
(She's a rebel, she's a...)
----------------------------------|
----------------------------------|
-------------------------7---5----|
-5-------5-------5-------7---5----|
-5-------5-------5-------5---3----|
-3-------3-------3----------------|

Verse2/Riff:
----------------------------------|
----------------------------------|
-----5-------5-------5---7---5----|
-5---5---5---5---5---5---7---5----|
-5---3---5---3---5---3---5---3----|
-3-------3-------3----------------|

Riff:
----------------------------------|
----------------------------------|
-----5-------5-------5---7---5----|
-5---5---5---5---5---5---7---5----|
-5---3---5---3---5---3---5---3----|
-3-------3-------3----------------|

Verse3:
----------------------------------|
----------------------------------|
-----5-------5-------5---7---5----|
-5---5---5---5---5---5---7---5----|
-5---3---5---3---5---3---5---3----|
-3-------3-------3----------------|

Chorus:
--------------------------------------------------------------|
-6-------7-----------------------6---7---13-------------------|
-9-------8-------5---------------9---8---12------12-----------|
-9-------9-------5-------5-------9---9---10------12------12---|
-7-------9-------3-------5-------7---9-----------10------12---|
---------7---------------3-----------7-------------------10---|

---------------------------|
---------------------------|
------------------12-------|
-9-9--7-7--1010---12--12---|
-9-9--7-7--1010---10--12---|
-7-7--5-5--8-8--------10---|
(Well nothing comes to mind)
[ Tab from: http://www.guitartabs.cc/tabs/g/green_day/shes_a_rebel_tab_ver_2.html ]
Bridge:
Guitar1 plays Riff
------------------------------------------------------------|
----3-3-----------3-3-----------3-3-------------------------|
-xx-4-4-xx-5-5-xx-4-4-xx-5-5-xx-4-4-xx-5-5-/2-2-2--2-4-5-4--|
-----------5-5-----------5-5-----------5-5------------------|
------------------------------------------------------------|
------------------------------------------------------------|

Chorus:
--------------------------------------------------------------|
-6-------7-----------------------6---7---13-------------------|
-9-------8-------5---------------9---8---12------12-----------|
-9-------9-------5-------5-------9---9---10------12------12---|
-7-------9-------3-------5-------7---9-----------10------12---|
---------7---------------3-----------7-------------------10---|

e|---------------------------|
B|---------------------------|
G|------------------12-------|
D|-9-9--7-7--1010---12--12---|
A|-9-9--7-7--1010---10--12---|
E|-7-7--5-5--8-8--------10---|
  (Well nothing comes to mind

Verse:
----------------------------------|
----------------------------------|
-------------------------7---5----|
-5-------5-------5-------7---5----|
-5-------5-------5-------5---3----|
-3-------3-------3----------------|

Riff:
----------------------------------|
----------------------------------|
-----5-------5-------5---7---5----|
-5---5---5---5---5---5---7---5----|
-5---3---5---3---5---3---5---3----|
-3-------3-------3----------------|

Bridge:
------------------------------------------------------------|
----3-3-----------3-3-----------3-3-------------------------|
-xx-4-4-xx-5-5-xx-4-4-xx-5-5-xx-4-4-xx-5-5-/2-2-2--2-4-5-4--|
-----------5-5-----------5-5-----------5-5------------------|
------------------------------------------------------------|
------------------------------------------------------------|

and end on G5!!

wooooooooooooooooooooooooooooooooo!!!!all done!
Comments