Green Day - She's A Rebel Chords & Tabs

 

She's A Rebel Chords & Tabs

Green Day Chords & Tabs

Version: 1 Type: Tab 5 ratings
1 star 2 stars 3 stars 4 stars 5 stars
comments

She's A Rebel Tab

ARTIST: GREEN DAY
SONG: "SHE'S A REBEL"
ALBUM: "AMERICAN IDIOT"
TUNING: STANDARD (EADGBE)

(Distortion)

VERSE PART ONE
E|-----------------------------------
B|-----------------------------------
G|-------------------7-7-3-3---------
D|-5-5---5-5---5-5---7-7-3-3-5-5-----
A|-5-5---5-5---5-5---5-5-5-5-5-5-----
E|-3-3---3-3---3-3-----------3-3-----

"She's a rebel..."

VERSE PART TWO
E|--------------------------------------
B|--------------------------------------
G|-----5-5-----5-5-----5-5-7-7-5-5------
D|-5-5-5-5-5-5-5-5-5-5-5-5-7-7-5-5-5-5--
A|-5-5-3-3-5-5-3-3-5-5-3-3-5-5-3-3-5-5--
E|-3-3-----3-3-----3-3-------------3-3--

"From Chicago, to Toronto.."

CHORUS PART ONE
E|---------------------------------------
B|---------------------------------------
G|-9-9-9-9-------------------------------
D|-9-9-9-9-9-9-9-9-10-10-10-10-5-5-5-5---
A|-7-7-7-7-9-9-9-9-10-10-10-10-5-5-5-5---
E|---------7-7-7-7-8--8--8--8--3-3-3-3---

"She sings the revolution..."
[ Tab from: http://www.guitartabs.cc/tabs/g/green_day/shes_a_rebel_tab.html ]
CHORUS PART TWO
E|----------------------------------------------------------------------
B|----------------------------------------------------------------------
G|-9-9-9-9-----12-12-10-10-10-10-7-7------------------12-12-12-12-------
D|-9-9-9-9-9-9-12-12-10-10-10-10-7-7-9-9-7-7-10-10-10-12-12-12-12-------
A|-7-7-7-7-9-9-10-10-8--8--8--8--5-5-9-9-7-7-10-10-10-10-10-10-10-------
E|---------7-7-----------------------7-7-5-5-8--8--8--------------------

"she brings this liberation..."

LEAD
E|--------------------------------------------------------
B|------8-----8-----8-----8-----8-----8-6/7-7-7-7-7-8-8---
G|--7-7---7-7---7-7---7-7---7-7---7-7---------------------
D|--------------------------------------------------------
A|--------------------------------------------------------
E|--------------------------------------------------------
P.M.. .   . .   . .   . .   . .   . .

SONG ORDER

VERSE PART ONE X2
VERSE PART TWO X6
CHORUS PART ONE X1
CHORUS PART TWO X1
VERSE PART TWO WITH LEAD X2
CHORUS PART ONE X1
CHORUS PART TWO X1
VERSE PART ONE X2
VERSE PART TWO X2

Comments