Green Day - She Chords & Tabs

 

She Chords & Tabs

Green Day Chords & Tabs

Version: 2 Type: Tab 0 ratings
1 star 2 stars 3 stars 4 stars 5 stars
comments

She Tab

ok as most of you know green day tunes there instraments down 1/2
step but u can play this song in standard tuning.im going to tab
this outr in standard tunning.

this song is so easy and it kicks major ass.any questions or corrections 
e-mail me at boxcarkid821@aol.com..........tom delonge is guitar god.

e------------------------------------------------------------------------
b------------------------------------------------------------------------
g------------------------------------------------------------------------
d---4--------------------------------------------------------------------
a---4------just palm mute this right b4 the first chorus-----------------
e---2--------------------------------------------------------------------
[ Tab from: http://www.guitartabs.cc/tabs/g/green_day/she_tab_ver_2.html ]
e------------------------------------------------------------------------
b------------------------------------------------------------------------
g-----6--------------4--------------------------------*4---------*6------
d-----6--------------4----------------4---------------*4---4-(3x)*6------
a-----4--------------6----------------4-------(2x)----*2---4-----*4------
e-------------------------------------2---------------*----2-----*-------
this is the chourus but i didng put the strummin cuz its easy to figure out

e------------------------------------------------------------------------
b------------------------------------------------------------------------
g-----------6---------4*-----4----*--------------------------------------
d---4-------6---------4*4----4---4*------4-------------------------------
a---4-------4---------2*4----2---4*end on4-------------------------------
e---2------------------*2--------2*------2-------------------------------
this is the verse but no strumming

ok thats the whole song all u have to do if figure out where it all goes
and timing and shit like that i dont careif its right or wrong cuz it
sounds right to me.
Comments