Green Day - She Chords & Tabs

 

She Chords & Tabs

Green Day Chords & Tabs

Version: 4 Type: Bass Tab 0 ratings
1 star 2 stars 3 stars 4 stars 5 stars
comments

She Bass Tab

   
Song: She
Artist: Green Day
Album: Dookie
Tabbed By: Scott Sherman
Tune: E to Eb

Intro
G--------------------------------->
D-5-5-55-5-55-555-5-5-55-5-55-555->
A--------------------------------->
E--------------------------------->
  She...
>----------------------------------------------------------------->
>-5-5-55-5-55-5557--------------------------------5-5-55-5-55-555->
>-----------------5-5-55-5-55-55503-3-3333-33-3333---------------->
>----------------------------------------------------------------->

>--------------------------------------------------------------------|
>-5-5-55-5-55-5557------------------------4h5p45-54------------------|
>-----------------5-5-55-5-55-55503-333333---------5-----------------|
>---------------------------------------------------3333333333333333-|

Chorus
G------------------------------------------------------------------>
D-----------------------3-------------------------------3---------->
A-5-555555-555-5553-3323----------5-555555-555-5553-3323----------->
E------------------------3-33-3333-----------------------3-33-3333->
 Scream at me...
>-----------------------------------------------------------------|
>-----------------------------------------------------------------|
>3-333333--------3-333333--------3-333333-------5-555555-5-555555-|
>--------3-333333--------3-333333--------3-33333------------------|
[ Tab from: http://www.guitartabs.cc/tabs/g/green_day/she_btab_ver_4.html ]
Verse
G------------------------------------------------------------------>
D------------------------------------------------------------------>
A-----------------5-555555-55-55553-33333333333333-----3----------->
E-3-33333333333333--------------------------------3-333-3-33-33330->

>-------------------------------------------------------------------|
>-----------------------------------------4h5p45-54-----------------|
>-----------------5-555555-55-55553-333333---------5-----3----------|
>-3-33333333333333----------------------------------3-333-3-33-3333-|

THEN Play Chorus, then

Bridge
G------------------------------------------------------------------->
D--------------------------7-5-4---------4h5p45-54------------------>
A---------------035-555555------03-333333---------5-----3----------->
E-3-3-3333-33-03-----------------------------------3-333-3-33-33330->

>------------------------------------------------------------------|
>--------------------------45754---------4h5p45-54-----------------|
>---------------035-555555------03-333333---------5-----3----------|
>-3-3-3333-33-03-----------------------------------3-333-3-33-3333-|


Chorus-Out
G------------------------------------------------------------------>
D-----------------------3-------------------------------3---------->
A-5-555555-555-5553-3323----------5-555555-555-5553-3323----------->
E------------------------3-33-3333-----------------------3-33-3333->
 Scream at me...
>------------------------------------------------------------------|
>------------------------------------------------------------------|
>3-333333--------3-333333--------3-333333-------5-55555555555555---|
>--------3-333333--------3-333333--------3-33333----------------3\-|
END
Comments or corrections mail me at shermdog17@yahoo.com
Check out my band at www.geocities.com/thecause_ifanything/punk.html
Comments