Green Day - She Chords & Tabs

 

She Chords & Tabs

Green Day Chords & Tabs

Version: 2 Type: Bass Tab 0 ratings
1 star 2 stars 3 stars 4 stars 5 stars
comments

She Bass Tab

Song: She
Artist: Green Day
Album: Dookie

Ok, I was looking my old tab of this and I noticed the intro part was wrong.... opppss... :)
It's fixed now though...

Intro
Gb-------------------------------------------------------
Db--5-5-5-5-5-5-5/7---------------------------5-5-5-5-5--
Ab------------------5-5-5-5-5-5-0-3-3-3-3-3-3------------
Eb-------------------------------------------------------

Gb-----------------------------------------------------------------
Db--5-5-5-5-5-5-5/7-----------------------4h5-4h5-4h5--------------
Ab------------------5-5-5-5-5-5-0-3-3-3-3--------------------------
Eb----------------------------------------------------3-3-3-3-3-3--

Chorus				       	 X2		     X3
Gb-----------------------------------------|-------------------|---------------
Db--------------------------3h5------------|-------------------|---------------
Ab--5-5-5-5-5-5-5-3-3-3-2-3----------------|--3-3-3-3----------|--3h5-5-5-5-5--
Eb------------------------------3-3-3-3-3--|----------3-3-3-3--|---------------
[ Tab from: http://www.guitartabs.cc/tabs/g/green_day/she_btab_ver_2.html ]
2nd Verse
Gb-------------------------------------------------------------
Db-------------------------------------------------------------
Ab----------------5-5-5-5-5-5-5-3-3-3-3-3-3-3-----3-3----------
Eb--3-3-3-3-3-3-3-----------------------------3-3-----3-3-3-3--

Gb-------------------------------------------------------------------
Db--------------------------------------4h5-4h5-4h5------------------
Ab----------------5-5-5-5-5-5-5-3-3-3-3-----------------3-3----------
Eb--3-3-3-3-3-3-3-----------------------------------3-3-----3-3-3-3--

Bridge
Gb---------------------------------------------------------------------
Db--------------------------7-5p4------------4h5-4h5-4h5---------------
Ab----------------5-5-5-5-5-------7--3-3-3-3------------------3-3------
Eb--3-3-3-3-3-3-3-----------------------------------------3-3-----3-3--

Gb---------------------------------------------------------------------------
Db----------------------------4h5-7-5p4------------4h5-4h5-4h5---------------
Ab----------------5-5-5-5-5-7-----------7--3-3-3-3------------------3-3------
Eb--3-3-3-3-3-3-3-----------------------------------------------3-3-----3-3--


Verse X1
Chorus X1
2nd Verse X1
Chorus X1
Bridge X1
Chorus X1


This tab was created by Christian Mangs. Email me at:
Shadow145@hotmail.com

Comments