Green Day - September Chords & Tabs

 

September Chords & Tabs

Green Day Chords & Tabs

Version: 1 Type: Tab 8 ratings
1 star 2 stars 3 stars 4 stars 5 stars
comments

September Tab

Tabs For “September” by Green Day
Album: American Idiot

Tabbed by:  Amber Hansen (crazie_gurl103@yahoo.com)

This song sounds pretty easy but the hard part comes to the actual plucking 
of the strings in the right order; it took me forever to sound all this out 
but if you have another way to play it or if you know the chords please email 
me above!!!

INTRO INTO VERSES
E ---------------------------------------------------------------------------------------3-
B --------------3-------------3-------------3------------3------------3-------------3------
G -----0----0------0----0--------0----0-------0----0------0----0--------0----0-------------
D -----------------------------------------------------------------------------------------
A -----------------------------------------------------------------------------------------
E -----------------------------------------------------------------------------------------

VERSES
E ---------------------------------------------------------------------------------------
B ----------------3------------3-------3-------------3------------3----------------------
G -------0----0------0----0------0-------------0------------0----------------0-----------
D ------------------------------------------4-------------4--------------4---------------
A ---------------------------------------------------------------------------------------
E ---------------------------------------------------------------------------------------

E ---------------------------------------------------------------------------------0-----
B -----------------3-----------3----------------------3--------3-------------------------
G ------------0-----------0-------------0---------0--------0-------0-----------0---------
D --------2-----------2------------2-----------0--------0------0-------------------------
A ---------------------------------------------------------------------------3-----------
E ---------------------------------------------------------------------------------------

E ----------------0-----------------------------------------------------------------------
B -------------------------------------4----------4--------------------------3------------
G -----------0----------0--------0----------0----------0-----*-----0----0-------0----0----
D ----------------------------------------------------------------------------------------
A ------3-----------3--------3----------3----------3--------------------------------------
E ----------------------------------------------------------------------------------------
[ Tab from: http://www.guitartabs.cc/tabs/g/green_day/september_tab.html ]
E ----------------------------------------------------------------------------------------
B ------3---------3-------------3--------------3------3-----------------------------------
G -----------0---------0----0-------0----0--------0---------------------------------------
D ----------------------- repeat from beginning of verse tab from here--------------------
A ----------------------------------------------------------------------------------------
E ----------------------------------------------------------------------------------------
* This is what you play for every verse that goes into another verse, but for the switch 
from the verse to the little bridge parts starts at the end of the (3, 0, 4 tab from the 
A, G, B strings; the change starts like this:
* = start here again after last star
BRIDGE/REFRAIN
E -----------------------------------------------------------------------------------------
B -------------------3----------3------3---------3---------------3-----0-----------------
G --*-----0----0-------0----0-----0-------0----0-----0------0-----------------------------
D -------------------------------------------------------4-------------------------------
A -----------------------------------------------------------------------------------------
E -----------------------------------------------------------------------------------------

E ----------------------------------------------------------------------------0-------0--
B ----------------0---------0------------------0-----------0-----------------------------
G ------------0---------0---------0-------0-----------0----------0--------0--------0-----
D --------2---------2---------2----------------------------------------------------------
A --------------------------------------2----------2----------2--------3---------3-------
E ---------------------------------------------------------------------------------------

E -----------------------------------------------------------------------------------------
B --------------------------3---------------3----0--------------0------------0-------------
G --------0-------0----0-------0-------0-------------------0------------0-----------0------
D --------------------------------4------------------2------------2-----------2------------
A -----3-----------------------------------------------------------------------------------
E -----------------------------------------------------------------------------------------

E --------------------------------------------------------------------------------------3--
B ---------------0-----------0----------------------3-----------3-----------------2--------
G -----------------------------------------------0---------0------------0-----3------------
D ----------1-----------1-----------1------------------------------------------------------
A -----2-----------2-----------2------------3---------3-----------3------------------------
E -----------------------------------------------------------------------------------------


E --------------3--------------------------------------------------------------------------
B ---------2-------------------------------------------------------------------------------
G -----3-----------------------------------------------------------------------------------
D -----------------------------------------------------------------------------------------
A -----------------------------------------------------------------------------------------
E -----------------------------------------------------------------------------------------
The Chorus is exactly the same as the Verse tabs, follow the tabbing from above.

SOLO (super easy)
E -------------7--------7-----7-------7--------7-----7---------8---------8------8----------
B -----8---8----8---8-----8-----7---7---7---7-----7-----8---8-----8---8-----8--------------
G -----------------------------------------------------------------------------------------
D -----------------------------------------------------------------------------------------
A -----------------------------------------------------------------------------------------
E -----------------------------------------------------------------------------------------

E -----------------------------------------------------------------------------------------
B -----8----8----8----8-----7----7----7----7-----------------------------------------------
G -----------------------------------------------------------------------------------------
D -----------------------------------------------------------------------------------------
A -----------------------------------------------------------------------------------------
E -----------------------------------------------------------------------------------------
 Repeat this but the second time do the (8 on the B string) 8 times and the (7 on B string) 8 times, repeat this, then end on a (8 on the B string.)

If you have any corrections or comments, please let me know!  Again its crazie_gurl103@yahoo.com
Comments