Green Day - Scumbag Chords & Tabs

 

Scumbag Chords & Tabs

Green Day Chords & Tabs

Version: 1 Type: Tab 2 ratings
1 star 2 stars 3 stars 4 stars 5 stars
comments

Scumbag Tab

   
Tabbed by:Sam Champness
Email:
Song: Scumbag
Tuning:Eadgbe

Verse
e|------------------------------------------------------------------|
B|------------------------------------------------------------------|
G|-------4-4-4-4-4-4-4---------4-4-4-4-4-4-4-4----------------------|
D|2-4----4-4-4-4-4-4-4--2-4----4-4-4-4-4-4-4-4---2-4----2-2-2-2-2-2-|
A|2-4----2-2-2-2-2-2-2--2-4----2-2-2-2-2-2-2-2---2-4----2-2-2-2-2-2-|
E|0-2-0-----------------0-2-0--------------------0-2-0--0-0-0-0-0-0-|

Chorus
e|-------------------------------------------------------------------|
B|-------------------------------------------------------------------|
G|-------------------------4-4-4-4-4-4-------------------------------|
D|2-4---6-6-6-6-6-6-\-4-4--4-4-4-4-4-4--2-4---6-6-6-6-6--4-4-4-4-4-4-|
A|2-4---6-6-6-6-6-6-\-4-4--2-2-2-2-2-2--2-4---6-6-6-6-6--4-4-4-4-4-4-|
E|0-2-0-4-4-4-4-4-4-\-2-2---------------0-2-0-4-4-4-4-4--2-2-2-2-2-2-|
[ Tab from: http://www.guitartabs.cc/tabs/g/green_day/scumbag_tab.html ]
Solo
e|-------|----------------------------------------|---------------------------------|
B|-------|-----------------------------------7-7~-|---------------------------------|
G|-------|8-8-6h8-8-6h8-6----8-8-6h8-8-6h8-6------|---------------------------------|
D|-2-4---|----------------9~----------------------|9-9-9-9-9\-8-8-8-8-8-\-6-6-6-6-6-|
A|-2-4---|----------------------------------------|---------------------------------|
E|-0-2-0-|----------------------------------------|---------------------------------|

e|----------------------------------------------------------|
B|----------------------------------------------------------|
G|----------------------------------------------------------|
D|-------------9-9-9-9-9\-8-8-8-8-8\-6-6-6-6-6--------------|
A|/9-9-9-9-9-----------------------------------/9-9-9-9-9---|
E|----------------------------------------------------------|X2

ORDER
VERSE
CHORUS
VERSE
CHORUS
SOLO (VERSE PLAY OVER IT BY GUITAR 2)
CHORUS
FINISH

| /  slide up
| \  slide down
| h  hammer-on
| p  pull-off
| ~  vibrato
| +  harmonic
| x  Mute note
===================================================================================================
Comments