Green Day - Sassafras Roots Chords & Tabs

 

Sassafras Roots Chords & Tabs

Green Day Chords & Tabs

Version: 1 Type: Tab 0 ratings
1 star 2 stars 3 stars 4 stars 5 stars
comments

Sassafras Roots Tab

From: Joe 201 (billiej@tin.it)
Group: Green Day
Album: Dookie
Released: 1994 reprise records
Track: 9
Title: sassafras roots

**tune  step down**


intro

|----------------|
|----------------|
|-7--------------|
|-7----7----2----|
|-5----7----2----|
|------5----0----|

verse

|-------------------------------------|
|-------------------------------------|
|-----------9-7-6-7-7-7-7-7-----------|
|-7-7-7-7-7-9-7-6-7-7-7-7-7-2-2-2-2-2-|
|-7-7-7-7-7-7-5-4-5-5-5-5-5-2-2-2-2-2-|
|-5-5-5-5-5-----------------0-0-0-0-0-|

chorus
[ Tab from: http://www.guitartabs.cc/tabs/g/green_day/sassafras_roots_tab.html ]
|-----------------------------------------------------------------------|
|-----------------------------------------------------------------------|
|-7-7-7-7-7-----------7-7-7-7-7-----------7-7-7-7-7---------------------|
|-7-7-7-7-7-2-2-2-2-2-7-7-7-7-7-2-2-2-2-2-7-7-7-7-7-7-7-7-7-7-2-2-2-2-2-|
|-5-5-5-5-5-2-2-2-2-2-5-5-5-5-5-2-2-2-2-2-5-5-5-5-5-7-7-7-7-7-2-2-2-2-2-|
|-----------0-0-0-0-0-----------0-0-0-0-0-----------5-5-5-5-5-0-0-0-0-0-|

bridge

|-----------------------------------------------------------------------|
|-----------------------------------------------------------------------|
|-----------7-7-7-7-7-----------7-7-7-7-7-----------7-7-7-7-7-9-9-9-9-9-|
|-4-4-4-4-4-7-7-7-7-7-4-4-4-4-4-7-7-7-7-7-4-4-4-4-4-7-7-7-7-7-9-9-9-9-9-|
|-4-4-4-4-4-5-5-5-5-5-4-4-4-4-4-5-5-5-5-5-4-4-4-4-4-5-5-5-5-5-7-7-7-7-7-|
|-2-2-2-2-2-----------2-2-2-2-2-----------2-2-2-2-2---------------------|
Comments