Green Day - Restless Heart Syndrome Chords & Tabs

 

Restless Heart Syndrome Chords & Tabs

Green Day Chords & Tabs

Version: 3 Type: Tab 0 ratings
1 star 2 stars 3 stars 4 stars 5 stars
comments

Restless Heart Syndrome Tab

   
-------------------------------------------------------------------------------
                             Restless Heart Syndrome - Green Day
-------------------------------------------------------------------------------
Tabbed by: Wes Fitting
Email: wesbond13@yahoo.com


Tuning: Full Step Down (DGCFAd)
Yes, it is technically played in standard tuning, but in my opinion it sounds much more 
the recording when tuned a full step down. Feel free to play it which ever you feel, and 
you anonymous poster.


Intro-Guitar 1(Piano part)
   Am          D           G           C           F           Bb
|--------0-----------------------------------------------------------------0r|
|--1-----1-----3-----3-----0-----0-----1-----1-----------1-----------3-----0r|
|--2-----------2-----2-----0-----0-----0-----0-----2-----2-----3-----3-----1r|
|-----2-----2--0-----0--------0-----0--2-----2-----3-----------3-----3-----2r|
|--0-----0--------0-----0-----------------3-----3-----3-----3--1-----1-----2r|
|---------------------------3-----3-----------------1-----1-------1-----1--0r|

Verse-Guitar 1
|------------------------------------------------|
|--5-----5-----5-----5-----5-----5-----5-----5---|
|--5-----5-----5-----5-----5-----5-----5-----5---|
|--7-----7--7--5-----5--5--4-----4--4--3-----3--2|
|------------------------------------------------|
|------------------------------------------------|

Guitar 2 (Acoustic-Comes in with the band at "Somebody take the pain away")
   Am          Am/G         Am/F#       Am/F
|--0-----0--0--------------------------------------|
|--1-----1--1--1-1-1--1--1--1-----1--1--1-1-1--1--1|
|--2-----2--2--2-2-2--2--2--2-----2--2--2-2-2--2--2|
|--2-----2--2--2-2-2--2--2--2-----2--2--2-2-2--2--2|
|--0-----0--0--0-0-0--0--0-------------------------|
|--------------3-3-3--3--3--2-----2--2--1-1-1--1--1|

Guitar 3 (Clean Electric-Absent in first verse)
|-----------------------------------------0------|
|--------1-----------1-----------1--------1------|
|-----------2-----------2-----------2-----2------|
|-----2-----------2-----------2------------------|
|--0---------------------------------------------|
|--------------3-----------2-----------1-----1--0|
Pre Chorus-Guitar 2
   Dm          Dm/C         Bm7         Bbmaj7
|--1-----1--1--1-1-1--1--1--1-----1--1--1-1-1--1--1|
|--3-----3--3--3-3-3--3--3--3-----3--3--3-3-3--3--3|
|--2-----2--2--2-2-2--2--2--2-----2--2--2-2-2--2--2|
|--0-----0--0---------------------------3-3-3--3--3|
|--0-----0--0--3-3-3--3--3--2-----2--2--1-1-1--1--1|
|--------------------------------------------------|

Guitar 3
|--------1-----------1-----------1--------1------|
|-----------3-----------3-----------3--------3---|
|-----2-----------2-----------2------------------|
|--0---------------------------------------------|
|--------------3-----------2-----------1--------0|
|------------------------------------------------|

Chorus-Guitar 2
   Am                            Am/G
|--0--0--0--0--0-0-0-0--0--0-0-x-0--0--0--0--0-0-0-0--0--0-0-x|
|--1--1--1--1--1-1-1-1--1--1-1-x-1--1--1--1--1-1-1-1--1--1-1-x|
|--2--2--2--2--2-2-2-2--2--2-2-x-2--2--2--2--2-2-2-2--2--2-2-x|
|--2--2--2--2--2-2-2-2--2--2-2-x-2--2--2--2--2-2-2-2--2--2-2-x|
|--0--0--0--0--0-0-0-0--0--0-0-x-----------------------------x|
|--------------------------------3--3--3--3--3-3-3-3--3--3-3-x|

   F#m7            D             G               E
|--0--0--0--0--0-0-2-2--2--2-2-x-3--3--3--3--3-x-0-0--0--0-0-x|
|--1--1--1--1--1-1-3-3--3--3-3-x-3--3--3--3--3-x-0-0--0--0-0-x|
|--2--2--2--2--2-2-2-2--2--2-2-x-0--0--0--0--0-x-1-1--1--1-1-x|
|--2--2--2--2--2-2-0-0--0--0-0-x-0--0--0--0--0-x-2-2--2--2-2-x|
|------------------0-0--0--0-0-x-2--2--2--2--2-x-2-2--2--2-2-x|
|--2--2--2--2--2-2---------------3--3--3--3--3-x-0-0--0--0-0-x|

          Am                    Am/G
|-0--0--0--0--0-0-0-0--0--0-0-x-0--0--0--0--0-0-0-0--0--0-0-x|
|-1--1--1--1--1-1-1-1--1--1-1-x-1--1--1--1--1-1-1-1--1--1-1-x|
|-2--2--2--2--2-2-2-2--2--2-2-x-2--2--2--2--2-2-2-2--2--2-2-x|
|-2--2--2--2--2-2-2-2--2--2-2-x-2--2--2--2--2-2-2-2--2--2-2-x|
|-0--0--0--0--0-0-0-0--0--0-0-x------------------------------|
|-------------------------------3--3--3--3--3-3-3-3--3--3-3-x|

   F#m7            D             G               E
|--0--0--0--0--0-0-2-2--2--2-2-x-3--3--3--3--3-x-0--|
|--1--1--1--1--1-1-3-3--3--3-3-x-3--3--3--3--3-x-0--|
|--2--2--2--2--2-2-2-2--2--2-2-x-0--0--0--0--0-x-1--|
|--2--2--2--2--2-2-0-0--0--0-0-x-0--0--0--0--0-x-2--|
|------------------0-0--0--0-0-x-2--2--2--2--2-x-2--|
|--2--2--2--2--2-2---------------3--3--3--3--3-x-0--|

Guitar 3(Same chords as guitar 2)
|--------------------------------------------------------------------2---|
|--------1-----------1-----------1-----------1-----------1-----------3--3|
|-----------2-----------2-----------2-----------2-----------2-----2------|
|-----2-----------2-----------2-----------2-----------2------------------|
|--0-----------0---------------------------------------------------------|
|--------------------------3-----------3-----------2---------------------|

|--------3----------0---------------------------------------------------|
|--------3----------0--0--------1-----------2-----------1-----------1---|
|-----0-----0-------1--------------2-----------2-----------2-----------2|
|----------------2-----------2-----------2-----------3-----------2------|
|-------------------------0-----------0---------------------------------|
|--3----------0-----------------------------------3-----------3---------|

|--------------------2-----------3-----0----|
|--------1-----------3--3--------3-----0----|
|-----------2-----2-----------0-----0--1----|
|-----2--------------------------------2----|
|--------------------------------------2----|
|--2-----------------------3-----------0----|
[ Tab from: http://www.guitartabs.cc/tabs/g/green_day/restless_heart_syndrome_tab_ver_3.html ]
Solo-Guitar 4 (Light distortion with wah)

|------------------------------------------------------------------------------------------------|
|------------------------------------------------------------------------------------------------|
|-14-14-14-14-17-17-14-14-16-16-16-16-17-17-14-14-14-14-14-14-14-14-14-14-14-14-14-14-14-14-14-14|
|------------------------------------------------------------------------------------------------|
|-12-12-12-12-15-15-12-12-14-14-14-14-15-15-12-12-12-12-12-12-12-12-12-12-12-12-12-12-12-12-12-12|
|------------------------------------------------------------------------------------------------|

|------------------------------------------------------------------------------------------------|
|------------------------------------------------------------------------------------------------|
|-14-14-14-14-17-17-14-14-16-16-16-16-17-17-19-19-19-19-17-17-16-16-17-17-17-17-16-16-12-12-12-12|
|------------------------------------------------------------------------------------------------|
|-12-12-12-12-15-15-12-12-14-14-14-14-15-15-17-17-17-17-15-15-14-14-15-15-15-15-14-14-10-10-10-10|
|------------------------------------------------------------------------------------------------|

|---------------------------------------------------------------------------------------------|
|---------------------------------------------------------------------------------------------|
|-12-12-9--17-17-14-14-16-16-16-16-17-17-14-14-14-14-14-14-14-14-14-14-14-14-14-14-14-14-14-9-|
|---------------------------------------------------------------------------------------------|
|-10-10-7--15-15-12-12-14-14-14-14-15-15-12-12-12-12-12-12-12-12-12-12-12-12-12-12-12-12-12-7-|
|---------------------------------------------------------------------------------------------|

|-------------------------------------------------------------------------|
|-------------------------------------------------------------------------|
|-14-14-14-14-17-17-14-14-16-16-16-16-17-17-19-19-19-19-19-19-19-19-19-19^|
|-------------------------------------------------------------------------|
|-12-12-12-12-15-15-12-12-14-14-14-14-15-15-17-17-17-17-17-17-17-17-17-17^|
|-------------------------------------------------------------------------|

(Keep the strings bent up a half step, and up a full step for the last two notes)
|--------------------|
|--------------------|
|-19-19-19-19^^-19-19|
|--------------------|
|-17-17-17-17^^-17-17|
|--------------------|

Guitar 5 (Electric with light distortion)

  Am          Am/G        Am/F#       F5          E5
|-0--0--0--0--0--0--0--0--0--0--0--0---------------|
|-1--1--1--1--1--1--1--1--1--1--1--1---------------|
|-2--2--2--2--2--2--2--2--2--2--2--2--10--10--10--9|
|-2--2--2--2--2--2--2--2--2--2--2--2--10--10--10--9|
|-0--0--0--0--------------------------8---8---8---7|
|-------------3--3--3--3--2--2--2--2---------------|

Outro

Guitars 4, 5, and 6. Play through 3 times before playing final outro
Guitar 5
|-----------------------------------------------------------------------------|
|-----------------------------------------------------------------------------|
|-------------------------------------10-10-10-10-----------10-10--10-10-10-9-|
|-7-7-7-7-----------7-7-7-7-----------10-10-10-10-----------10-10--10-10-10-9-|
|-7-7-7-7-----------7-7-7-7-----------8--8--8--8------------8--8---8--8--8--7-|
|-5-5-5-5-----------5-5-5-5---------------------------------------------------|
Guitar 4
|-----------------------------------------------------------------------------|
|-----------------------------------------------------------------------------|
|--------14-14-14-14-------14-14-14-14-----------10-10-10-10-----10------10-9-|
|-----------------------------------------------------------------------------|
|--------12-12-12-12-------12-12-12-12-----------8--8--8--8------8-------8--7-|
|-----------------------------------------------------------------------------|
Guitar 6 (electric guitar with light distortion-come in for the third time)
|-----------------------------------------------------------------------------|
|-----------------------------------------------------------------------------|
|--------17-17-17-17-------17-17-17-17----------14-14-14-14------14------14-13|
|-----------------------------------------------------------------------------|
|--------15-15-15-15-------15-15-15-15----------12-12-12-12------12------12-11|
|-----------------------------------------------------------------------------|

Final Outro
Guitar 5
|----------------------------------------------------------|
|----------------------------------------------------------|
|-10-10-10-10------------10-10--10-10-10-10----------------|
|-10-10-10-10------------10-10--10-10-10-10-7--7--7--7--7--|
|-8--8--8--8-------------8--8---8--8--8--8--7--7--7--7--7--|
|-------------------------------------------5--5--5--5--5--|
Guitar 4
|----------------------------------------------------------|
|----------------------------------------------------------|
|------------14-14-14-14------14------14-13-14-14-14-14-14-|
|----------------------------------------------------------|
|------------12-12-12-12------12------12-11-12-12-12-12-12-|
|----------------------------------------------------------|
Guitar 6
|----------------------------------------------------------|
|----------------------------------------------------------|
|------------10-10-10-10------10------10-9--9--9--9--9--9--|
|----------------------------------------------------------|
|------------8--8--8--8-------8-------8--7--7--7--7--7--7--|
|----------------------------------------------------------|

Intro
Versex5
Pre-Chorusx2
Versex5
Pre-Chorusx2
Chorus
Solo
Chorus
Outro
Final Outro

| ^  half bend
| ^^ full bend
| r  let it ring
| /  slide up
| \  slide down
| h  hammer-on
| p  pull-off
| ~  vibrato
| +  harmonic
| x  Mute note
===============================================================================
Comments