Green Day - Redundant Chords & Tabs

 

Redundant Chords & Tabs

Green Day Chords & Tabs

Version: 2 Type: Tab 4 ratings
1 star 2 stars 3 stars 4 stars 5 stars
comments

Redundant Tab

From: Kurt233smith
Artist: Green Day
Son: Redundant
Tunning: Standard

INTRO
e:-----------------:-----------------:-----------------:-----------------:
b:-------2---------:-------2---------:-------2---------:-----------------:
g:-----------2-----:-----------2-----:-----------2-----:-----------------:
d:-----------------:-----------------:-----------------:-4-4-4-4-4-4-4-4-:
a:-----------------:-----------------:-----------------:-4-4-4-4-4-4-4-4-:
e:-5---------------:-4---------------:-3---------------:-2-2-2-2-2-2-2-2-:

e:-----------------:-----------------:-----------------:-----------------:
b:-----------------:-----------------:-----------------:-----------------:
g:-4-4-4-4-4-4-4-4-:-7-7-7-7-7-7-7-7-:-----------------:---------9---9---:
d:-4-4-4-4-4-4-4-4-:-7-7-7-7-7-7-7-7-:-7-7-7-7-7-7-7-7-:-7-7-7-7-9---9---:
a:-2-2-2-2-2-2-2-2-:-5-5-5-5-5-5-5-5-:-7-7-7-7-7-7-7-7-:-7-7-7-7-7---7---:
e:-----------------:-----------------:-5-5-5-5-5-5-5-5-:-5-5-5-5---------:

VERSE
e:-----------------:-----------------:-----------------:-----------------:
b:-----------------:-----------------:-----------------:-----------------:
g:-----------------:-7-7-7-7-7-7-7-7-:-------------7---:-----------------:
d:-7-7-7-7-7-7-7-7-:-7-7-7-7-7-7-7-7-:-7-7-7-7-7-7-7---:-7-7-7-7-7-7-7-7-:
a:-7-7-7-7-7-7-7-7-:-5-5-5-5-5-5-5-5-:-7-7-7-7-7-7-5---:-7-7-7-7-7-7-7-7-:
e:-5-5-5-5-5-5-5-5-:-----------------:-5-5-5-5-5-5-----:-5-5-5-5-5-5-5-5-:
[ Tab from: http://www.guitartabs.cc/tabs/g/green_day/redundant_tab_ver_2.html ]
e:-----------------:-----------------:-----------------:-----------------:
b:-----------------:-----------------:-----------------:-----------------:
g:-----------------:-7-7-7-7-7-7-7-7-:-----------------:-----------------:
d:-7-7-7-7-7-7-7-7-:-7-7-7-7-7-7-7-7-:-2-2-2-2-2-2-2-2-:-2-2-2-2-5---5---:
a:-7-7-7-7-7-7-7-7-:-5-5-5-5-5-5-5-5-:-2-2-2-2-2-2-2-2-:-2-2-2-2-5---5---:
e:-5-5-5-5-5-5-5-5-:-----------------:-0-0-0-0-0-0-0-0-:-0-0-0-0-3---3---:

SOLO/Chorus
e:-----------------:-----------------:-----------------:-----------------:
b:-----------------:-----------------:-----------------:-----------------:
g:-----------------:-7-7-7-7-7-7-7-7-:-------------7---:-----------------:
d:-7-7-7-7-7-7-7-7-:-7-7-7-7-7-7-7-7-:-7-7-7-7-7-7-7---:-7-7-7-7-7-7-7-7-:
a:-7-7-7-7-7-7-7-7-:-5-5-5-5-5-5-5-5-:-7-7-7-7-7-7-5---:-7-7-7-7-7-7-7-7-:
e:-5-5-5-5-5-5-5-5-:-----------------:-5-5-5-5-5-5-----:-5-5-5-5-5-5-5-5-:

e:-----------------:-----------------:-----------------:-----------------:
b:-----------------:-----------------:-----------------:-----------------:
g:-----------------:-4-4-4-4-4-4-4-4-:-----------------:-----------------:
d:-4-4-4-4-4-4-4-4-:-4-4-4-4-4-4-4-4-:-2-2-2-2-2-2-2-2-:-2-2-2-2-7---7---:
a:-4-4-4-4-4-4-4-4-:-2-2-2-2-2-2-2-2-:-2-2-2-2-2-2-2-2-:-2-2-2-2-7---7---:
e:-2-2-2-2-2-2-2-2-:-----------------:-0-0-0-0-0-0-0-0-:-0-0-0-0-5---5---:

SOLO/Verse
e:-----------------:-----------------:-----------------:-----------------:
b:-----------------:-------7---------:-----------------:-----------------:
g:-------6---------:-----------7-----:-------6-----7---:-------6---------:
d:-----------7-----:-------------7---:-----------7-7---:-----------7-----:
a:-------------7---:-5---------------:-------------5---:-------------7---:
e:-5---------------:-----------------:-5---------------:-5---------------:

e:-----------------:-----------------:-----------------:
b:-----------------:-------4---------:-------0--(let it Ring)
g:-------3---------:-----------4-----:-----------------:
d:-----------4-----:-------------4---:-----------------:
a:-------------4---:--2--------------:-----------------:
e:-2---------------:-----------------:-0---------------:

This song rocks hard and its fun and easy to play, enjoy!!!
Comments