Green Day - Redundant Chords & Tabs

 

Redundant Chords & Tabs

Green Day Chords & Tabs

Version: 2 Type: Bass Tab

Redundant Bass Tab

   
yah so heres my update cuz my other one sucked   so heres how it really goes

INTRO

G--------------------------------------------------|
D--------------------------------------------------|
A--------------------------------------------------|
E-5555-5h7p5-4-5-4444-6-4-2-3333-5-3-1-2222222-1-0-|

G-------4--------7--------------------------------|
D------4-4------7-7----------12----12-------------|
A-22222----55555----/12121212--1212--12121212-7-7-|
E-------------------------------------------------|

VERSES

G------------------------------------------------------------------------|
D------------------------------------------------------------------------|
A----------5555555-7------5-------------------5555555-4-777777777777-----|
E-5555555-7---------555555-5555555-4-5555555-7-----------------------3-3-|

CHORUS

G---------------------------------------|
D---7--7-7---6--6-6---5--5-5------------|
A---------------------------------------|
E-55-55-5--44-44-4--33-33-3--222222-1-0-|

G-------4--------7--------------------------------|
D------4-4------7-7----------12----12-------------|
A-22222----55555----/12121212--1212--12121212-7-7-|
E-------------------------------------------------|
[ Tab from: http://www.guitartabs.cc/tabs/g/green_day/redundant_btab_ver_2.html ]
then do the verse again exept do this

1st ending          2nd ending
G------------------|---------------------------|
D---7--9--7--------|---7--9--------------------|
A-77-77-77-777-----|-77-77-77-7h9p7-5-7-5------|
E--------------3-3-|---------------------9-7-6-|

then do the chorus again then

SOLO (during the guitar solo)

G---------------------------------------------------4-------------------|
D------------------------------------------------4-----4----------------|
A----------5555555-7------5--------------------22-22-22-22--------------|
E-5555555-7---------555555-5555555-4-2222222-4------------000000000-3-3-|

G--------------------------------------->
D--------------------------------------->
A----------5555555-7-------------------->
E-5555555-7---------5555555-4-5555555-4->

G>---------------4--------------------------------|
D>------------4-----4-----7--9--------------------|
A>----------22-22-22-22-77-77-77-7h9p7-5-7-5------|
E>-2222222-4--------------------------------9-7-6-|

then do the chorus twice then

OUTRO

G----------------------------------------|
D----------------------------------------|
A----------------------------------------|
E-5555-5h7p5-4-5-4444-6-4-2-3333-5-3-1-2-|

there it is have fun