Green Day - Redundant Chords & Tabs

 

Redundant Chords & Tabs

Green Day Chords & Tabs

Version: 1 Type: Bass Tab 0 ratings
1 star 2 stars 3 stars 4 stars 5 stars
comments

Redundant Bass Tab

   
Intro:
G|-----------------------------------------------------------|
D|-7-7-7h9-7-6h7--6-6h7-6-5h6--5-5-5h6h7-5-0-----------------|
A|-----------------------------------------------------------|
E|-------------------------------------------2-2-2-2-2-2-2-2-|
    
G|---------4----------------------------------------------------|
D|-------4---------7-----------------11-------12----------------|
A|-22222-----55555---5-0-12-12-12-12----12-12----12-12-12-0-7-7-|
E|--------------------------------------------------------------|


Verse:
G|-----------------------------------------|
D|-----------------------------------------|
A|-----------5555555--7--------5-----------|
E|-5555555-7------------555555---5555555-4-|

G|-----------------------------------------|
D|-----------------------------------------|
A|-----------5555555--777777777777---------|
E|-5555555-7------------------------3-3----|

G|-----------------------------------------|
D|-----------------------------------------|
A|-----------5555555--7-------5------------|
E|-5555555-7-----------555555---5555555-4--|

G|-----------------------------------------|
D|-----------------------------------------|
A|-----------5555555--777777777777---------|
E|-5555555-7-------------------------------|


Chorus:
G|-----------------------------------------|
D|--7-7-7-----6-6-6-----5-5-5-----4-4-4----|
A|-----------------------------------------|
E|-5-5-5-5-0-4-4-4-4-0-3-3-3-3-0-2-2-2-2-0-|

G|---------4----------------------------------------------------|
D|-------4---------7-----------------11-------12----------------|
A|-22222-----55555---5-0-12-12-12-12----12-12----12-12-12-0-7-7-|
E|--------------------------------------------------------------|

[ Tab from: http://www.guitartabs.cc/tabs/g/green_day/redundant_btab.html ]
Verse 2:
G|-----------------------------------------|
D|-----------------------------------------|
A|-----------5555555--7--------5-----------|
E|-5555555-7------------555555---5555555-4-|

G|---------------------------------------|
D|-----------------------6--7------------|
A|-----------55555557777-77-7770--------|
E|-5555555-7----------------------3-3----|


G|----------------------------------------|
D|----------------------------------------|
A|-----------5555555--7-------5-----------|
E|-5555555-7-----------555555---5555555-4-|

G|-------------------------------------------|
D|-----------------------6--7----------------|
A|-----------55555557777-77-7-9/11-9--------|
E|-5555555-7--------------------------11-9-7-|


Bridge:
G|----------------------------------------|
D|----------------------------------------|
A|----------5555555--7-------5------------|
E|-5555555-7-----------555555---5555555/4-|

G|-------------------4------------------------|
D|-----------------4----------6----7----------|
A|---------0-22222-----0-7777---77--7770------|
E|-22222222-------------------------------3-3-|

G|---------------------------------------|
D|---------------------------------------|
A|----------5555555-7--------------------|
E|-5555555-7----------555555/45555555/4-|

G|-------------------4---------------------------|
D|-----------------4---------6--7----------------|
A|---------0-22222----0-7777-77-7-9/11-9--------|
E|-22222222-------------------------------11-9-7-|



Outro:
G|---------------------------------------------|
D|-7-7-7h9-7-6h7--6-6h7-6-5h6--5-5-5h6h7-5-0---|
A|---------------------------------------------|
E|-------------------------------------------2-|

Order:
Intro
Verse
Chorus
Verse 2
Chorus
Bridge
Chorus
Chorus
Outro

I worked long on this one, so have fun.
Comments