Green Day - Pulling Teeth Chords & Tabs

 

Pulling Teeth Chords & Tabs

Green Day Chords & Tabs

Version: 1 Type: Tab 0 ratings
1 star 2 stars 3 stars 4 stars 5 stars
comments

Pulling Teeth Tab

Green Day
Pulling Teeth 

Intro:
e|-----------------------------------------|
B|-----------------------------------------|  
G|---7--7--7--7--7--7----5--5--5--5--5--5--| (x4)
D|---6--6--6--6--6--6----4--4--4--4--4--4--|
A|---7--7--7--7--7--7----5--5--5--5--5--5--|
E|---5--5--5--5--5--5----3--3--3--3--3--3--|

e|----------------------|
B|----------------------|
G|---7---7---7---7---7--|
D|---6---6---6---6---6--|
A|---7---7---7---7---7--|
E|---5---5---5---5---5--|
[ Tab from: http://www.guitartabs.cc/tabs/g/green_day/pulling_teeth_tab.html ]
Verse:
e|-----------------------------------------------|
B|-----------------------------------------------|  
G|---7--7--7--7--7--7--7----5--5--5--5--5--5--5--| (x8)
D|---6--6--6--6--6--6--6----4--4--4--4--4--4--4--|
A|---7--7--7--7--7--7--7----5--5--5--5--5--5--5--|
E|---5--5--5--5--5--5--5----3--3--3--3--3--3--3--|

Chorus:
e|--------------------------------------------|
B|--------------------------------------------|
G|---6--6--6--6--6--6--6----4--4--4--4--4--4--|
D|---5--5--5--5--5--5--5----3--3--3--3--3--3--|
A|---6--6--6--6--6--6--6----4--4--4--4--4--4--|
E|---4--4--4--4--4--4--4----2--2--2--2--2--2--|

e|----------------------|
B|----------------------|
G|---7---7---7---7---7--|
D|---6---6---6---6---6--|
A|---7---7---7---7---7--|
E|---5---5---5---5---5--|

I can’t figure out the solo part is to hard.

Order:

Intro
Verse
Chorus
Verse
Solo(I can’t figure out)
Chorus
Verse
 
Comments