Green Day - Prosthetic Head Chords & Tabs

 

Prosthetic Head Chords & Tabs

Green Day Chords & Tabs

Version: 2 Type: Tab 0 ratings
1 star 2 stars 3 stars 4 stars 5 stars
comments

Prosthetic Head Tab

#----------------------------------PLEASE NOTE--------------------------------#
#This file is the author's own work and represents their interpretation of the#
#song. You may only use this file for private study, scholarship, or research.#
#-----------------------------------------------------------------------------#
#-- File created with Instab - http://www.pconline.com/~smcarey/instab.html --#
#-----------------------------------------------------------------------------#

Author/Artist: Green day
Title: Prosthetic head
Album: Nimrod
Transcribed by: Jeff Martindale

*Legend*

\ -slide down
------------------------------------
No special tuning.
This song is very easy so just Listen to the song to see how it goes!!!
[ Tab from: http://www.guitartabs.cc/tabs/g/green_day/prosthetic_head_tab_ver_2.html ]
-|----------------------------------------------------------------------------
-|----------------------------------------------------------------------------
-|--9--9----------------7-7---------------------------------------------------
-|--9--9--9----9-9---7--7-7--7------------------------------------------------
-|--7--7--9----9-9---7--5-5--7------------------------------------------------
-|--------7----7-7---5-------5------------------------------------------------
 chours:                                                                      

-|----------------------------------------------------------------------------
-|----------------------------------------------------------------------------
-|--9-\--3--4-4-4-4-4-4-4-4-4-4-4-4-------------------------------------------
-|--9-\--3--4-4-4-4-4-4-4-4-4-4-4-4-------------------------------------------
-|--7-\--1--2-2-2-2-2-2-2-2-2-2-2-2-------------------------------------------
-|----------------------------------------------------------------------------
   solo X4:                                                                   

-|----------------------------------------------------------------------------
-|----------------------------------------------------------------------------
-|----------------------------------------------------------------------------
-|-----1-2--------------1-----------------------------------------------------
-|--2---------------0-2---0-4-5-5-4-0-0-0-1-2---------------------------------
-|----------4-5-4-2-----------------------------------------------------------
                                                                              

Comments