Green Day - Prosthetic Head Chords & Tabs

 

Prosthetic Head Chords & Tabs

Green Day Chords & Tabs

Version: 1 Type: Tab 3 ratings
1 star 2 stars 3 stars 4 stars 5 stars
comments

Prosthetic Head Tab

   



artist:greenday
song:prosthetic head
album:nimrod
standard tuning

intro
e-----------------------------------
b-----------------------------------
g------9-9------7-7------9-9-----7-7
d------9-9-9-9--7-7-7-7--9-9-9-9-7-7
a------7-7-9-9--5-5-7-7--7-7-9-9-5-5
e----------7-7------5-5------7-7----



verse/chorus
e
b
g------9-9------7-7------9-9------7-7----
d------9-9-9-9--7-7-7-7--9-9-9-9--7-7-7-7
a------7-7-9-9--5-5-7-7--7-7-9-9--5-5-7-7
e----------7-7------5-5------7-7------5-5




[ Tab from: http://www.guitartabs.cc/tabs/g/green_day/prosthetic_head_tab.html ]
pre chorus
e-----------------------
b-----------------------
g----------------------9
d------9-9-9-9-9-9-9-9-9    x4
a------9-9-9-9-9-9-9-9-7
e------7-7-7-7-7-7-7-7--



bridge
e----------------------------------------------------------------
b----------------------------------------------------------------
g--------9-9------------------7-7--------------------------------
d------9-9-9--7-7-4-4---9-7-7-7-7-7-7-7-7--x4-----9-9-9-9-9-9-9-9
a------9-7-7--7-7-4-4---9-7-7-5-5-7-7-7-7---------9-9-9-9-9-9-9-9
e------7------5-5-2-2---7-5-5-----5-5-5-5---------7-7-7-7-7-7-7-7


that should be about right if anythings wrong or any more tabs email insane_clown666@hotmail.com
Comments