Green Day - Prosthetic Head Chords & Tabs

 

Prosthetic Head Chords & Tabs

Green Day Chords & Tabs

Version: 4 Type: Bass Tab 0 ratings
1 star 2 stars 3 stars 4 stars 5 stars
comments

Prosthetic Head Bass Tab

Green Day -> Prosthetic Head (Nimrod)

"I see you, down in the............." (Repeat 8x)
G:------------------------------------------------------
D:------------------------------------------------------
A:77---0h55---------------------------------------------
E:--777----55-7-5---------------------------------------

"You have a growth that must............." (Repeat 4x)
G:------------------------------------------------------
D:8h9-999999-8h9-99999----------------------------------
A:--------------------7---------------------------------
E:------------------------------------------------------
[ Tab from: http://www.guitartabs.cc/tabs/g/green_day/prosthetic_head_btab_ver_4.html ]
"You don't know, you don't say.........." (Repeat 2x)
G:------------------------------------------------------
D:-9-------------9--------------------------------------
A:7----5-4------7----5-4--------------------------------
E:--777---7-55-7--777---7-5-4-2-0-----------------------

Solo
G:-------------------------------------------------------------------
D:-----------------------------------------6-77-6-4-6h7h6------------
A:--8-99--------------8--4-55-4--------6-77----------------8--4-55-4-
E:99----4-55-4-22-5-77-55------555-6-77------------------77-55-------

Figured out by Luiz Manzano (Brasil)
Comments