Green Day - Prosthetic Head Chords & Tabs

 

Prosthetic Head Chords & Tabs

Green Day Chords & Tabs

Version: 1 Type: Bass Tab 1 rating
1 star 2 stars 3 stars 4 stars 5 stars
comments

Prosthetic Head Bass Tab

Song: Prosthetic Head
Artist: Green Day
Album: Nimrod

Verse
G-----------------------
D-----------------------
A-0-7-7------0-5-5------
E-------7-7--------5-5--
[ Tab from: http://www.guitartabs.cc/tabs/g/green_day/prosthetic_head_btab.html ]
Chorus
G--------------------------------------
D--------------------------------------
A-----------------7-----------------7--
E--7-7-7-7-7-7-7-----7-7-7-7-7-7-7-----

Bridge
G----------------------
D----------------------
A-------6-7------------
E--6-7-------4-5--3-2--

G----------------------------
D----------------------------
A-------6----4-5-------------
E--6-7----5-------4-5-5-5-5--


This tab was created by Christian Mangs.

Comments