Green Day - Poprocks And Coke Chords & Tabs

 

Poprocks And Coke Chords & Tabs

Green Day Chords & Tabs

Version: 7 Type: Tab 0 ratings
1 star 2 stars 3 stars 4 stars 5 stars
comments

Poprocks And Coke Tab

Green Day Poprocks & Coke
From the album International Superhits
Track: 2
Tabbed by Liam
Email: guitar_rocker_47@hotmail.com
Tuning: Standard

Riff 1 
e|------------------------------------------------------------------|
B|------------------------------------------------------------------|
G|-6-x-66-x-6-x-6-x-66-x-6-x-66-x-66-x-6-x-6-x----------------------|
D|-7-x-77-x-7-x-7-x-77-x-7-x-77-x-77-x-7-x-7-x----------------------|
A|-7-x-77-x-7-x-7-x-77-x-7-x-77-x-77-x-7-x-7-x----------------------|
E|-5-x-55-x-5-x-5-x-55-x-5-x-55-x-55-x-5-x-5-x----------------------|

Riff add
e|------------------------------------------------------------------|
B|------------------------------------------------------------------|
G|------------------------------------------------------------------|
D|-9-9--------------------------------------------------------------|
A|-7-7--------------------------------------------------------------|
E|------------------------------------------------------------------|

Riff add 2
e|------------------------------------------------------------------|
B|------------------------------------------------------------------|
G|------------------------------------------------------------------|
D|-7-x-77-x-7-x-7-x-77----------------------------------------------|
A|-5-x-55-x-5-x-5-x-55----------------------------------------------|
E|------------------------------------------------------------------|

Riff add 3
e|------------------------------------------------------------------|
B|------------------------------------------------------------------|
G|------------------------------------------------------------------|
D|-9-x-99-x-9-x-9-x-99-x-7-x-77-x-7-x-7-----------------------------|
A|-7-x-77-x-7-x-7-x-77-x-5-x-55-x-5-x-5-----------------------------|
E|------------------------------------------------------------------|

Chorus
e|-----------------------------|------------------------------------|
B|-----------------------------|------------------------------------|
G|--2----------------7-7-7-7-7-|--2----------------7-7-7-7-7--------|
D|--2--2---4-4-4-4---7-7-7-7-7-|--2--2---4-4-4-4---7-7-7-7-7--------|
A|--0--2---4-4-4-4---5-5-5-5-5-|--0--2---4-4-4-4---5-5-5-5-5--------|
E|-----0---2-2-2-2-------------|-----0---2-2-2-2--------------------|

e|-----------------------------|------------------------------------|
B|-----------------------------|------------------------------------|
G|--2----------------7-7-7-7-7-|--2----------------7-7-7-7-7--------|
D|--2--2---4-4-4-4---7-7-7-7-7-|--2--2---4-4-4-4---7-7-7-7-7--------|
A|--0--2---4-4-4-4---5-5-5-5-5-|--0--2---4-4-4-4---5-5-5-5-5--------|
E|-----0---2-2-2-2-------------|-----0---2-2-2-2--------------------|
[ Tab from: http://www.guitartabs.cc/tabs/g/green_day/poprocks_and_coke_tab_ver_7.html ]
Fill 1
e|------------------------------------------------------------------|
B|------------------------------------------------------------------|
G|------------------------------------------------------------------|
D|--7-7-7-7-7-7-7-7-7-7-7-7-7-7-7-----------------------------------|
A|--7-7-7-7-7-7-7-7-7-7-7-7-7-7-7-----------------------------------|
E|--5-5-5-5-5-5-5-5-5-5-5-5-5-5-5-----------------------------------|
PM  *****************************

Riff 2
e|------------------------------------------------------------------|
B|------------------------------------------------------------------|
G|------------------------------------------------------------------|
D|-7-x-77-x-7-x-7-x-77-x-77-x-77-x-7-x-7-x-7--2--4-x-44-x-44-x-4--2-|
A|-7-x-77-x-7-x-7-x-77-x-77-x-77-x-7-x-7-x-7--2--4-x-44-x-44-x-4--2-|
E|-5-x-55-x-5-x-5-x-55-x-55-x-55-x-5-x-5-x-5--0--2-x-22-x-22-x-2--0-|

e|------------------------------------------------------------------|
B|------------------------------------------------------------------|
G|------------------------------------------------------------------|
D|-7-x-77-x-77-x-7--2-----------------------------------------------|
A|-7-x-77-x-77-x-7--2-----------------------------------------------|
E|-5-x-55-x-55-x-5--0-----------------------------------------------|

Riff 2 add
e|------------------------------------------------------------------|
B|------------------------------------------------------------------|
G|-7-x-77-x-77-x-7-6------------------------------------------------|
D|-7-x-77-x-77-x-7-6------------------------------------------------|
A|-5-x-55-x-55-x-5-4------------------------------------------------|
E|------------------------------------------------------------------|

Bridge
e|------------------------------------------------------------------|
B|------------------------------------------------------------------|
G|-2-2-2-2-2-2-2-2---------------2-2-2-2-2-2-2-2--4-4-4-4-4-4---2---|
D|-0-0-0-0-0-0-0-0--4-4-4-4-4-4--0-0-0-0-0-0-0-0--2-2-2-2-2-2---2---|
A|------------------2-2-2-2-2-2---------------------------------0---|
E|------------------------------------------------------------------|

Outro
e|--------------------------------------------------------------------------|
B|--------------------------------------------------------------------------|
G|-6-x-66-x-6-x-6-x-66-x-6-x-66-x-66-x-6-x-6-x-------6-x-66-x-6-x-6-x-66----|
D|-7-x-77-x-7-x-7-x-77-x-7-x-77-x-77-x-7-x-7-x--9-9--7-x-77-x-7-x-7-x-77--9-|
A|-7-x-77-x-7-x-7-x-77-x-7-x-77-x-77-x-7-x-7-x--7-7--7-x-77-x-7-x-7-x-77--7-|
E|-5-x-55-x-5-x-5-x-55-x-5-x-55-x-55-x-5-x-5-x-------5-x-55-x-5-x-5-x-55----|


Order

Riff 1      (Acoustic)
Riff add    (Acoustic)
Riff 1      (Acoustic)
Riff add 2  (Acoustic)
Riff 1      (Acoustic)
Riff add 3  (Acoustic)
Riff 1      (Acoustic)
Riff add 2  (Acoustic)
Riff 1          (Acoustic)
Riff add 3  (Acoustic)
Riff 1      (Acoustic)
Chorus	 (Acoustic)
Riff 1      (Acoustic)
Riff add    (Acoustic)
Fill 1      (Acoustic)
Riff 1      (Electric)
Riff add 2  (Electric)
Riff 1      (Electric)
Riff add 3  (Electric)
Chorus      (Electric)
Riff 1      (Electric)
Riff add    (Electric)
Riff 2      (Electric)
Riff 2 add  (Electric)
Riff 2      (Electric)
Bridge      (Electric)
Riff 1
Riff add 2  (Electric)
Chorus      (Electric)(hold last chord for 12 more measures than usual)
Outro       (Acoustic)


Holy shit sticks this song kicks BOTTOM its really good and I hope this tab helps, please rate it. TA-RAH!
Comments