Green Day - Poprocks And Coke Chords & Tabs

 

Poprocks And Coke Chords & Tabs

Green Day Chords & Tabs

Version: 5 Type: Tab 0 ratings
1 star 2 stars 3 stars 4 stars 5 stars
comments

Poprocks And Coke Tab

   
Poprocks and Coke
Green Day

E tuning


Intro
           
|-------------|---------------|
|-------------|------------99-|
|-6-66-6-6-66-|-6-66-6-6-6-99-|
|-7-77-7-7-77-|-7-77-7-7-7-99-|
|-7-77-7-7-77-|-7-77-7-7-7-77-|
|-5-55-5-5-55-|-5-55-5-5-5----|


Verse

|-------------|-------------|-------------|-------------|
|-------------|-7-77-7-7-77-|-------------|-9-99-9-9-99-|
|-6-66-6-6-66-|-7-77-7-7-77-|-6-66-6-6-66-|-9-99-9-9-99-|
|-7-77-7-7-77-|-7-77-7-7-77-|-7-77-7-7-77-|-9-99-9-9-99-|
|-7-77-7-7-77-|-5-55-5-5-55-|-7-77-7-7-77-|-7-77-7-7-77-|         
|-5-55-5-5-55-|-------------|-5-55-5-5-55-|-------------|

|-------------|-------------|
|-7-77-7-7-77-|-------------|
|-7-77-7-7-77-|-6-66-6-6-66-|
|-7-77-7-7-77-|-7-77-7-7-77-|
|-5-55-5-5-55-|-7-77-7-7-77-|
|-------------|-5-55-5-5-55-|


Chorus

|---------------|---------------|---------------|
|-7-6-----------|-7-6-99-999-77-|-7-6-99-999-77-|
|-7-6-33-333-55-|-7-6-99-999-77-|-7-6-99-999-77-|
|-7-6-44-444-66-|-7-6-99-999-77-|-7-6-99-999-77-|
|-5-4-44-444-66-|-5-4-77-777-55-|-5-4-77-777-55-|
|-----22-222-44-|---------------|---------------|


Bridge

|---------------|---------------|-2-22-2-2-22-0-|
|---------------|---------------|-2-22-2-2-22-0-|
|-6-66-6-6-66-6-|-6-66-6-6-66-3-|-3-33-3-3-33-1-|
|-7-77-7-7-77-7-|-7-77-7-7-77-4-|-4-44-4-4-44-2-|
|-7-77-7-7-77-7-|-7-77-7-7-77-4-|-4-44-4-4-44-2-|
|-5-55-5-5-55-5-|-5-55-5-5-55-2-|-2-22-2-2-22-0-|
[ Tab from: http://www.guitartabs.cc/tabs/g/green_day/poprocks_and_coke_tab_ver_5.html ]
|-5-55-5-5-55-2-|---------------|-5-55-5-5-55-2-|
|-5-55-5-5-55-2-|-7-77-7-7-77-6-|-5-55-5-5-55-2-|
|-6-66-6-6-66-3-|-7-77-7-7-77-6-|-6-66-6-6-66-3-|
|-7-77-7-7-77-4-|-7-77-7-7-77-6-|-7-77-7-7-77-4-|
|-7-77-7-7-77-4-|-5-55-5-5-55-4-|-7-77-7-7-77-4-|
|-5-55-5-5-55-2-|---------------|-5-55-5-5-55-2-|

|-2-22-2-2-22-0-|-5-55-5-5-55-2-|-----------------|
|-2-22-2-2-22-0-|-5-55-5-5-55-2-|-----------------|
|-3-33-3-3-33-1-|-6-66-6-6-66-3-|-7-7-7-7-7-7-7-7-|
|-4-44-4-4-44-2-|-7-77-7-7-77-4-|-7-7-7-7-7-7-7-7-|
|-4-44-4-4-44-2-|-7-77-7-7-77-4-|-5-5-5-5-5-5-5-5-|
|-2-22-2-2-22-0-|-5-55-5-5-55-2-|-----------------|

|-----------------|-----------------|--------------|
|-----------------|-----------------|-10~~~~-9~~~~-|
|-6-6-6-6-7-7-7-7-|-9-9-9-9-9-9-9-9-|--------------|
|-7-7-7-7-7-7-7-7-|-9-9-9-9-9-9-9-9-|--------------|
|-5-5-5-5-5-5-5-5-|-7-7-7-7-7-7-7-7-|--------------|
|-----------------|-----------------|--------------|


Outro

|---------------|---------------|---------------|---------------|
|------------99-|------------99-|------------99-|---------------|
|-6-66-6-6-6-99-|-6-66-6-6-6-99-|-6-66-6-6-6-99-|-6-------------|
|-7-77-7-7-7-99-|-7-77-7-7-7-99-|-7-77-7-7-7-99-|-7-------------|
|-7-77-7-7-7-77-|-7-77-7-7-7-77-|-7-77-7-7-7-77-|-7-------------|
|-5-55-5-5-5----|-5-55-5-5-5----|-5-55-5-5-5----|-5-------------|

Order:

Intro (x1)
Verse (x2)
Chorus (x1)
Intro (x1)
Verse (x1)
Chorus (x1)
Bridge (x1)
Verse (x1) (come in a measure early playing A)
Chorus (x1) (play E an extra measure at the end)
Outro (x1)

Green Day rocks. Enjoy.
Comments