Green Day - Poprocks And Coke Chords & Tabs

 

Poprocks And Coke Chords & Tabs

Green Day Chords & Tabs

Version: 2 Type: Tab 21 ratings
1 star 2 stars 3 stars 4 stars 5 stars
comments

Poprocks And Coke Tab

   
Tabbed by: Sam Champness
Email:
Song: PopRocks And Coke
Tuning: Eadgbe

Intro
e|-----------------------|
B|-----------------------|
G|----------------9-9----|
D|-7-7-7--7-7--7--9-9----|
A|-7x7-7x-7-7x-7--7-7----|
E|-5x5-5x-5-5x-5---------|

Verse
e|-------------------------------------------------------------------|-->
B|-------------------------------------------------------------------|-->
G|-----------------7--7-7--7-7--7--------------------9--9-9--9-9--9--|-->
D|-7--7-7--7-7--7--7x-7-7x-7-7x-7---7--7-7--7-7--7---9x-9-9x-9-9x-9--|-->
A|-7x-7-7x-7-7x-7--5x-5-5x-5-5x-5---7x-7-7x-7-7x-7---7x-7-7x-7-7x-7--|-->
E|-5x-5-5x-5-5x-5-------------------5x-5-5x-5-5x-5-------------------|-->

-->|e|-----------------------------------|
-->|B|-----------------------------------|
-->|G|--7--7-7--7-7--7-------------------|
-->|D|--7x-7-7x-7-7x-7---7--7-7--7-7--7--|
-->|A|--5x-5-5x-5-5x-5---7x-7-7x-7-7x-7--|
-->|E|-------------------5x-5-5x-5-5x-5--|

Chorus
e|--------------------------------------------------|
B|--------------------------------------------------|
G|----------------7-7--9-9-9-9--7-7--9-9-9-9--7-7---|
D|-4-4-4-4--7-7---7-7--9-9-9-9--7-7--9-9-9-9--7-7---|
A|-4-4-4-4--7-7---5-5--7-7-7-7--5-5--7-7-7-7--5-5---|
E|-2-2-2-2--5-5-------------------------------------|
[ Tab from: http://www.guitartabs.cc/tabs/g/green_day/poprocks_and_coke_tab_ver_2.html ]
Bridge
e|-----------||------------------------------------------------------|-->
B|-----------||------------------------------------------------------|-->
G|-----------||-------------------7-7-7-7----------------------------|-->
D|-7-7-7-7-7-||-4-4-4-4--7-7-7-7--7-7-7-7--7-7-7-7--4-4-4-4--7-7-7-7-|-->
A|-7-7-7-7-7-||-4-4-4-4--7-7-7-7--5-5-5-5--7-7-7-7--4-4-4-4--7-7-7-7-|-->
E|-5-5-5-5-5-||-2-2-2-2--5-5-5-5-----------5-5-5-5--2-2-2-2--5-5-5-5-|-->

-->|e|---------------------------------------------------------|
-->|B|----------------------------------------------9b-9-------|
-->|G|-7-7-7-7--6-6-6-6--7-7-7-7--9-9-9-9-9-9------------------|
-->|D|-7-7-7-7--6-6-6-6--7-7-7-7--9-9-9-9-9-9---------------7--|
-->|A|-5-5-5-5--4-4-4-4--5-5-5-5--7-7-7-7-7-7---------------7--|
-->|E|------------------------------------------------------5--|

Ending
e|-----------------------|--------------||END-ON---||
B|-----------------------|--------------||---------||
G|-----------------9-9---|--------------||---------||
D|-7--7-7--7-7--7--9-9---|PLAY-AS-NEEDED||--7------||
A|-7x-7-7x-7-7x-7--7-7---|--------------||--7------||
E|-5x-5-5x-5-5x-5--------|--------------||--5------||ENJOY!!! PLEASE RATE!!!!

| /  slide up
| \  slide down
| h  hammer-on
| p  pull-off
| ~  vibrato
| +  harmonic
| x  Mute note
===============================================================================
Comments