Green Day - Poprocks And Coke Chords & Tabs

 

Poprocks And Coke Chords & Tabs

Green Day Chords & Tabs

Version: 1 Type: Tab 5 ratings
1 star 2 stars 3 stars 4 stars 5 stars
comments

Poprocks And Coke Tab

Intro:
--------------------------------------------------------
--------------------------------------------------------
-------------------------------------9-9----------------
--7--7-7--7-7-7-7--7-7-7--7-7--7-7-7-7-7----------------
--7--7-7--7-7-7-7--7-7-7--7-7--7-7-7-7-7----------------
--5--5-5--5-5-5-5--5-5-5--5-5--5-5-5--------------------

verse:
--------------------------------------------------------
--------------------------------------------------------
-------------------7--7-7--7-7-7-7----------------------
--7--7-7--7-7-7-7--7--7-7--7-7-7-7--7--7-7-7-7-7-7------
--7--7-7--7-7-7-7--5--5-5--5-5-5-5--7--7-7-7-7-7-7------
--5--5-5--5-5-5-5-------------------5--5-5-5-5-5-5------

--------------------------------------------------------
--------------------------------------------------------
--------------------------------------------------------
--9--9-9--9-9-9-9-9-9--7--7-7--7-7-7-7-7-7--------------
--9--9-9--9-9-9-9-9-9--7--7-7--7-7-7-7-7-7--7--7-7-7-7-7
--7--7-7--7-7-7-7-7-7--5--5-5--5-5-5-5-5-5--7--7-7-7-7-7
--------------------------------------------5--5-5-5-5-5
[ Tab from: http://www.guitartabs.cc/tabs/g/green_day/poprocks_and_coke_tab.html ]
Chorus:
--------------------------------------------------------
--------------------------------------------------------
-----------------------7---9-9-9-9-9-7-7-7-7----9-9-9-9-
--7-2-4-4-4-4-2-2-2-2--7-7-9-9-9-9-9-7-7-7-7-7--9-9-9-9-
--7-2-4-4-4-4-2-2-2-2--5-7-7-7-7-7-7-5-5-5-5-7--7-7-7-7-
--5-0-2-2-2-2-0-0-0-0----5-------------------5----------

--------------------------------------------------------
--------------------------------------------------------
--7-7-7-7-7-7-------------------------------------------
--7-7-7-7-7-7-------------------------------------------
--5-5-5-5-5-5-------------------------------------------

solo:
--------------------------------------------------------
--------------------------------------------------------
----------------------------7--7-7-7-7-6----------------
--7-------------7--7-7-7-7-7-------------7-7-7-7-7-7----
----7--9-9-9-9-7----------------------------------------
--------------------------------------------------------

--------------------------------------------------------
--------------------------------------------------------
----------------------------7-7-7-7-7-6-6-7-7-9-9-9-9---
--7-------------7--7-7-7-7-7----------------------------
----7--9-9-9-9-7----------------------------------------
--------------------------------------------------------

----------
----10--9-
----------
----------
----------
----------

intro
verse
chorus
intro
verse
chorus
solo
verse
chorus
Comments