Green Day - Poprocks And Coke Chords & Tabs

 

Poprocks And Coke Chords & Tabs

Green Day Chords & Tabs

Version: 3 Type: Bass Tab 0 ratings
1 star 2 stars 3 stars 4 stars 5 stars
comments

Poprocks And Coke Bass Tab

   
Tabbed by: fenderbass1
Standard tuning (E,A,D,G)

Intro:
G---------------------------------------------------------------------------
D---------------------------------------------------------------------------
A-0-00-0-0-000-5-55-5-5-555-0-00-0-0-000-7-77-7-7-777-5-55-5-5-554-0-00-0-00
E---------------------------------------------------------------------------

Chorus:
G-------------------------------------------------
D-----------------------2-222-0-00-----2-222-0-000
A----5-4-2-222-0-00-4-2------------4-2------------
E-------------------------------------------------

Verse:
G--------------------------------
D--------------------------------
A----0-00-0-0-000-0-00-0-0-0-77-0
E--------------------------------

G-----------------------------------------------------------------
D-----------------------------------------------------------------
A----5-55-5-5-555-0-00-0-0-000-7-77-7-7-777-5-55-5-5-554-0-00-0-00
E-----------------------------------------------------------------

Chorus:
G-------------------------------------------------
D-----------------------2-222-0-00-----2-222-0-000
A----5-4-2-222-0-00-4-2------------4-2------------
E-------------------------------------------------
[ Tab from: http://www.guitartabs.cc/tabs/g/green_day/poprocks_and_coke_btab_ver_3.html ]
Bridge:
G-----------------------------------------------------------------
D-----------------------------------------------------------------
A----0-00-0-0-000-0-00-0-0-0---------------0-00-00-000-5-55-55-554
E----------------------------0-2-22-22-220------------------------

G-----------------------------------------------------
D-----------------------------------------------------
A----0-00-0-0-000-0-00-0-0-0---------------0-00-00-000
E----------------------------0-2-22-22-220------------

G----------------------------------
D----------------------------------
A----5555555555555555-7777777775420
E----------------------------------

Verse:
G-----------------------------------------------------------------
D-----------------------------------------------------------------
A----5-55-5-5-555-0-00-0-0-000-7-77-7-7-777-5-55-5-5-554-0-00-0-00
E-----------------------------------------------------------------

Chorus:
G-------------------------------------------------------------------
D-----------------------2-222-0-00-----2-222-0-000-----2222222222222
A----5-4-2-222-0-00-4-2------------4-2-------------4-2--------------
E-------------------------------------------------------------------

Ending:  * * let ring
G-------------------------------------------------
D-------------------------------------------------
A----0-00-0-0-0-77-0-00-0-0-0-77-0-00-0-0-0-77-*0*
E-------------------------------------------------
Comments